Song name
# A B C D E F G H I J K L M N O P Q R S T U V W X Y Z

Hikaru Utada - Passion tab

e|------------------------------------------------------------------------|
B|----7-10-9-------9-7~~~-----9-12~~-----------7-9~~~7-7-7-9~~10~~10-9-10-|
G|--9--------9-11---------9-9-------9-8~~~~9~~----------------------------|
D|------------------------------------------------------------------------|
A|------------------------------------------------------------------------|
E|------------------------------------------------------------------------|

e|-------------------------------------------------------------------------|
B|-----------9~~--10-9------------10-9------------10-9-------9-10-9~~----9-|
G|--11-11-11----9------9-11~~~--9------9-11-----9------9-11----------9-9---|
D|------------------------------------------11~~---------------------------|
A|-------------------------------------------------------------------------|
E|-------------------------------------------------------------------------|

e|------------------------------------------------------------------------|
B|-12~~~----------7-9~~7-7-7-9~~~10~~10-9-10----------9~~~--10-9----------|
G|-------9-8~~~~9---------------------------11-11-11------9------9-11-----|
D|------------------------------------------------------------------------|
A|------------------------------------------------------------------------|
E|------------------------------------------------------------------------|

e|----------------------|
B|----10-9--------------|
G|--9------9-11---------|
D|--------------11~~~~~-|
A|----------------------|
E|----------------------|
Tap to rate this tab
# A B C D E F G H I J K L M N O P Q R S T U V W X Y Z