Song name
# A B C D E F G H I J K L M N O P Q R S T U V W X Y Z

Hillsong United - Im Not Ashamed tab

Help us improve GuitareTab! Take a short survey!
This is by Hillsong
It's my first try so it's a little rough
This is Back Guitar
Can't Tab First One

Enjoy

jessm502@aol.com


INTRO

BEGINS AFTER GTR.1 HIGH NOTES

e/------------------------|
b/------------------------|
g/------------------------|
d/--5~~~~~~~~~~~~~~55555--|
a/--5~~~~~~~~~~~~~~55555--|
E/--3~~~~~~~~~~~~~~33333--|


MAINRIFF
e/--------------------------------------|
b/--------------------------------------|
g/---------------5-5--------------------|
d/---2-2---5-5---5-5---7-7--------------|
a/---2-2---5-5---3-3---7-7--------------|
E/---0-0---3-3---------5-5--------------|             4x

VERSE
Repeat Main Riff 4x PM'ed

then....

e/------------------|
b/------------------|
g/------------------|
d/--77----7/--------|
a/--77----7/--------|
E/--55----5/--------|
    ^^
P.M-^^


e/-----------------------------------|
b/-----------------------------------|
g/---------------5-5-----------------|
d/---2-2---5-5---5-5---7-7--xxxx-----|
a/---2-2---5-5---3-3---7-7--xxxx-----|
E/---0-0---3-3---------5-5--xxxx-----|    3x


e/-------------------------------|
b/-------------------------------|
g/---------------5-5-------------|
d/---2-2---5-5---5-5---7-7~~~777-|
a/---2-2---5-5---3-3---7-7~~~777-|
E/---0-0---3-3---------5-5~~~555-|

Pre-CHROUS:

Em G C Am

Chrosus:

G D Em C

Rate and Comment Thank You
Have Fun Playin

God Ble.ss
Related for Im Not Ashamed tab