Song name
# A B C D E F G H I J K L M N O P Q R S T U V W X Y Z

Hillsong United - The Time Has Come tab

Intro/Verse
e|---(7--9)------9----9---9h5--5/7-------|
B|-10------(9)-7----7---5----------------|
G|---------------------------------------|
D|---------------------------------------|   x2
A|---------------------------------------|
E|---------------------------------------|

e|---5--7--9--10--(only-5-on-4th-time-|
B|------------------------------------| x 4
G|------------------------------------|
D|--------palm-muted------------------|
A|------------------------------------|
E|------------------------------------|

Chorus
      A 
Today, Today it's all or nothing 
F#m 
All the way 
                          D 
The praise goes out to You 
                                   A 
Yeah all the praise goes out to You 
      A 
Today, today I live for one thing 
   F#m 
To give You praise 
                  D 
in everything I do 
				   A 
Yeah all the praise goes out to You 
 

Verse 2
e|---(7--9)----9---9---9--5--7---------|
B|-10-----(9)7----7---5----------------|
G|-------------------------------------|
D|-------------------------------------|   x2
A|-------------------------------------|
E|-------------------------------------|

e|---5--7--9--10---(only-5th fret-on-4th-time)|
B|--------------------------------------------| x 4
G|--------------palm-muted--------------------|
D|--------------------------------------------|
A|--------------------------------------------|
E|--------------------------------------------|

Chorus
      A 
Today, Today it's all or nothing 
F#m 
All the way 
                          D 
The praise goes out to You 
                                   A 
Yeah all the praise goes out to You 
      A 
Today, today I live for one thing 
   F#m 
To give You praise 
                  D 
in everything I do 
				   A 
Yeah all the praise goes out to You 
 

Bridge
e|--------9---9---9--9h5-5/7----------|
B|-----7----7---5---------------------|
G|------------------------------------|
D|------------------------------------|   x2
A|------------------------------------|
E|------------------------------------|

e|--9--10--9--5--4-------9--10--9--5--12------9--10--9--5--4------|
B|----------------------------------------------------------------|
G|----------------------------------------------------------------|
D|----------------------------------------------------------------|   
A|----------------------------------------------------------------|
E|----------------------------------------------------------------|

e|---------10------------10-----------|
B|---9--10---------9--10--------------|
G|------------------------------------|
D|------------------------------------|   
A|------------------------------------|
E|------------------------------------|

e|---5--7--9--10--(only 5 on 4th time)|
B|------------------------------------| x 4
G|------------------------------------|
D|------------palm-muted--------------|
A|------------------------------------|
E|------------------------------------|

Chorus 
      A 
Today, Today it's all or nothing 
F#m 
All the way 
                          D 
The praise goes out to You 
                                   A 
Yeah all the praise goes out to You 
      A 
Today, today I live for one thing 
   F#m 
To give You praise 
                  D 
in everything I do 
				   A 
Yeah all the praise goes out to You 
 


Outro
e|--------9---9---9--9h5-5/7-------9-----9----------|
B|-----7----7---5---------------7-----7-----5-------|
G|--------------------------------------------------|
D|--------------------------------------------------|   
A|--------------------------------------------------|
E|--------------------------------------------------|
Tap to rate this tab
# A B C D E F G H I J K L M N O P Q R S T U V W X Y Z