Song name
# A B C D E F G H I J K L M N O P Q R S T U V W X Y Z

Him - Dying Song tab

-------------------------------------------------------------------------------
			     DYING SONG - HIM
-------------------------------------------------------------------------------
Tabbed by: Mono
Email: bowdowntothemono@hotmail.co.uk

Tuning: Standard (EADGBe)

Intro/Verse Part 1 (clean):
e|---------------------2~----9p8-6-4-|
B|---------------------2~------------|
G|---6-5-------6-5-----3~------------|
D|-------6---------6---4~------------| x3
A|-4---------4---------4~------------|
E|---------------------2~------------|

Verse Part 2:              On with distortion
e|---------------------2~------------|
B|---------------------2~------------|
G|---6-5-------6-5-----3~------------|
D|-------6---------6---4~--44--------|
A|-4---------4---------4~--44--------|
E|---------------------2~--22--------|

Pre-chorus:
e|---------------------------------------------|
B|---------------------------------------------|
G|---------------------------------------------|
D|-66666666-88888888-66666666-3333333333333333-|
A|-66666666-88888888-66666666-3333333333333333-|
E|-44444444-66666666-44444444-1111111111111111-|
                                      ........

Chorus:
e|-------------------------------|
B|-------------------------------|
G|-33333333----------------------|
D|-33333333-44444444-------------| x2
A|-11111111-44444444-09v--080604-|
E|----------22222222-------------|


e|-------------------------------------|
B|-------------------------------------|
G|-66666666666666666-------------------|
D|-66666666666666666-4~---\\\666666666-|
A|-44444444444444444-4~---\\\666666666-|
E|-------------------2~---\\\444444444-|
    ................

Verse Part 1 x2
Verse Part 2
Pre-Chorus
DRUM FILL
Chorus

Bridge:
e|----------------------------------------|
B|----------------------------------------|
G|-3--------------------------------------|
D|-3-3-4--------------44444444-66666666\\-|
A|-1-3-4--------- x2 -44444444-66666666\\-|
E|---1-2--222421------22222222-44444444\\-|

Solo Rhythm:
e|----------------------------|
B|----------------------------|
G|-3333-----------------------|
D|-3333-3333-66666666- x4 -44-|
A|-1111-3333-66666666------44-|
E|------1111-44444444------22-|

Solo:
e|---------------------------------------------------------------|
B|-----------------------------------------------------9b11rb11--|
G|--8br-------------8br--------9b---8br--------------------------|
D|-8----11-10-868--8----11-10------8----11-10-868--8v------------|
A|----------------------------8----------------------------------|
E|---------------------------------------------------------------|

Pre-Chorus (Do last chord for twice as long)
Chorus
First part of Bridge x8
Solo starts playing over the top halfway through.

THE END.

************************************

| /   slide up
| \   slide down
| h   hammer-on
| p   pull-off
| ~   vibrato
| +   harmonic
| x   Mute note
| b   Bend
| pb  Pre-bend
| br  Bend release
| pbr Pre-bend release
| brb Bend release bend

************************************
Tap to rate this tab
# A B C D E F G H I J K L M N O P Q R S T U V W X Y Z