Song name
# A B C D E F G H I J K L M N O P Q R S T U V W X Y Z

Him - The Sacrament tab

HIM - THE SACRAMENT
LOVE METAL

E, B, G, D, A, E

Intro (after keyboard intro):
|-------------------------------------------------------------------|
|-------------------------------------------------------------------|
|o-----------------------------------------------------------------o|
|o-5-5-5-5-5-5-5-5-------------------------------------------------o|
|--3-3-3-3-3-3-3-3-7-7-7-7-7-7-7-7-2-2-2-2-2-2-2-2-2-2-2-2-2-2-2-2--|
|--3-3-3-3-3-3-3-3-5-5-5-5-5-5-5-5-0-0-0-0-0-0-0-0-0-0-0-0-0-0-0-0--|


|-------------------------------------------------------------------|
|-------------------------------------------------------------------|
|-------------------------------------------------------------------|
|--5-5-5-5-5-5-5-5--------------------------------------------------|
|--3-3-3-3-3-3-3-3-7-7-7-7-7-7-7-7-2-2-2-2-2-2-2-2-5-5-5-5-5-5-5-5--|
|--3-3-3-3-3-3-3-3-5-5-5-5-5-5-5-5-0-0-0-0-0-0-0-0-3-3-3-3-3-3-3-3--|


|-------------------------------------------------------------------|
|-------------------------------------------------------------------|
|-------------------------------------------------------------------|
|--5-5-5-5-5-5-5-5--------------------------------------------------|
|--3-3-3-3-3-3-3-3-7-7-7-7-7-5/4-2~~~~~~~~~~~~~~~~~~~~~~~~~~~~~~~~--|
|--3-3-3-3-3-3-3-3-5-5-5-5-5-3/2-0~~~~~~~~~~~~~~~~~~~~~~~~~~~~~~~~--|

Verse:
PM----------------------------------------------------------------|
|-------------------------------------------------------------------|
|-------------------------------------------------------------------|
|-------------------------------------------------------------------|
|--2-2-2-2-2-2-2-2-2-2-2-2-2-2-2-2-5-5-5-5-5-5-5-5-5-5-5-5-5-5-5-5--|
|--0-0-0-0-0-0-0-0-0-0-0-0-0-0-0-0-3-3-3-3-3-3-3-3-3-3-3-3-3-3-3-3--|
|-------------------------------------------------------------------|


PM------------------------------------------------|
|-------------------------------------------------------------------|
|-------------------------------------------------------------------|
|-------------------------------------------------------------------|
|--2-2-2-2-2-2-2-2-2-2-2-2-2-2-2-2-5-5-5-5-5-5-5-5------------------|
|--0-0-0-0-0-0-0-0-0-0-0-0-0-0-0-0-3-3-3-3-3-3-3-3-x\\\\\\\\\\\\\\--|
|--------------------------------------------------x\\\\\\\\\\\\\\--|

                                                            (Play 3x)
PM----------------------------------------------------------------|
|-------------------------------------------------------------------|
|-------------------------------------------------------------------|
|-------------------------------------------------------------------|
|--7-7-7-7-7-7-7-7-9-9-9-9-9-9-9-9-5-5-5-5-5-5-5-5------------------|
|--5-5-5-5-5-5-5-5-7-7-7-7-7-7-7-7-3-3-3-3-3-3-3-3-5-5-5-5-5-5-5-5--|
|--5-5-5-5-5-5-5-5-7-7-7-7-7-7-7-7-3-3-3-3-3-3-3-3-3-3-3-3-3-3-3-3--|


|-----------------------------------|
|-----------------------------------|
|-----------------11br11br11br-9/7--|
|-----------------------------------|
|--7~~~~~~~~~~~~~~------------------|
|--5~~~~~~~~~~~~~~------------------|

Chorus:
|-------------------------------------------------------------------|
|-------------------------------------------------------------------|
|o-----------------------------------------------------------------o|
|o-5-5-5-5-5-5-5-5-------------------------------------------------o|
|--3-3-3-3-3-3-3-3-7-7-7-7-7-7-7-7-2-2-2-2-2-2-2-2-2-2-2-2-2-2-2-2--|
|--3-3-3-3-3-3-3-3-5-5-5-5-5-5-5-5-0-0-0-0-0-0-0-0-0-0-0-0-0-0-0-0--|


|-------------------------------------------------------------------|
|-------------------------------------------------------------------|
|-------------------------------------------------------------------|
|--5-5-5-5-5-5-5-5--------------------------------------------------|
|--3-3-3-3-3-3-3-3-7-7-7-7-7-7-7-7-2-2-2-2-2-2-2-2-5-5-5-5-5-5-5-5--|
|--3-3-3-3-3-3-3-3-5-5-5-5-5-5-5-5-0-0-0-0-0-0-0-0-3-3-3-3-3-3-3-3--|


|-------------------------------------------------------------------|
|-------------------------------------------------------------------|
|-------------------------------------------------------------------|
|--5-5-5-5-5-5-5-5--------------------------------------------------|
|--3-3-3-3-3-3-3-3-7-7-7-7-7-5/4-2~~~~~~~~~~~~~~~~~~~~~~~~~~~~~~~~--|
|--3-3-3-3-3-3-3-3-5-5-5-5-5-3/2-0~~~~~~~~~~~~~~~~~~~~~~~~~~~~~~~~--|

Verse:
PM----------------------------------------------------------------|
|-------------------------------------------------------------------|
|-------------------------------------------------------------------|
|-------------------------------------------------------------------|
|--2-2-2-2-2-2-2-2-2-2-2-2-2-2-2-2-5-5-5-5-5-5-5-5-5-5-5-5-5-5-5-5--|
|--0-0-0-0-0-0-0-0-0-0-0-0-0-0-0-0-3-3-3-3-3-3-3-3-3-3-3-3-3-3-3-3--|
|-------------------------------------------------------------------|


PM------------------------------------------------|
|-------------------------------------------------------------------|
|-------------------------------------------------------------------|
|-------------------------------------------------------------------|
|--2-2-2-2-2-2-2-2-2-2-2-2-2-2-2-2-5-5-5-5-5-5-5-5------------------|
|--0-0-0-0-0-0-0-0-0-0-0-0-0-0-0-0-3-3-3-3-3-3-3-3-x\\\\\\\\\\\\\\--|
|--------------------------------------------------x\\\\\\\\\\\\\\--|

                                                            (Play 3x)
PM----------------------------------------------------------------|
|-------------------------------------------------------------------|
|-------------------------------------------------------------------|
|-------------------------------------------------------------------|
|--7-7-7-7-7-7-7-7-9-9-9-9-9-9-9-9-5-5-5-5-5-5-5-5------------------|
|--5-5-5-5-5-5-5-5-7-7-7-7-7-7-7-7-3-3-3-3-3-3-3-3-5-5-5-5-5-5-5-5--|
|--5-5-5-5-5-5-5-5-7-7-7-7-7-7-7-7-3-3-3-3-3-3-3-3-3-3-3-3-3-3-3-3--|


|-----------------------------------|
|-----------------------------------|
|-----------------11br11br11br-9/7--|
|-----------------------------------|
|--7~~~~~~~~~~~~~~------------------|
|--5~~~~~~~~~~~~~~------------------|

Chorus:
|-------------------------------------------------------------------|
|-------------------------------------------------------------------|
|o-----------------------------------------------------------------o|
|o-5-5-5-5-5-5-5-5-------------------------------------------------o|
|--3-3-3-3-3-3-3-3-7-7-7-7-7-7-7-7-2-2-2-2-2-2-2-2-2-2-2-2-2-2-2-2--|
|--3-3-3-3-3-3-3-3-5-5-5-5-5-5-5-5-0-0-0-0-0-0-0-0-0-0-0-0-0-0-0-0--|


|-------------------------------------------------------------------|
|-------------------------------------------------------------------|
|-------------------------------------------------------------------|
|--5-5-5-5-5-5-5-5--------------------------------------------------|
|--3-3-3-3-3-3-3-3-7-7-7-7-7-7-7-7-2-2-2-2-2-2-2-2-5-5-5-5-5-5-5-5--|
|--3-3-3-3-3-3-3-3-5-5-5-5-5-5-5-5-0-0-0-0-0-0-0-0-3-3-3-3-3-3-3-3--|


|-------------------------------------------------------------------|
|-------------------------------------------------------------------|
|-------------------------------------------------------------------|
|--5-5-5-5-5-5-5-5--------------------------------------------------|
|--3-3-3-3-3-3-3-3-7-7-7-7-7-5/4-2~~~~~~~~~~~~~~~~~~~~~~~~~~~~~~~~--|
|--3-3-3-3-3-3-3-3-5-5-5-5-5-3/2-0~~~~~~~~~~~~~~~~~~~~~~~~~~~~~~~~--|

Interlude:
                                                            (Play 4x)
|-------------------------------------------------------------------|
|-------------------------------------------------------------------|
|o-----------------------------------------------------------------o|
|o-----------------------------------------------------------------o|
|-------------------------------------------------------------------|
|-------------------------------------------------------------------|

Chorus:
|-------------------------------------------------------------------|
|-------------------------------------------------------------------|
|o-----------------------------------------------------------------o|
|o-5-5-5-5-5-5-5-5-------------------------------------------------o|
|--3-3-3-3-3-3-3-3-7-7-7-7-7-7-7-7-2-2-2-2-2-2-2-2-2-2-2-2-2-2-2-2--|
|--3-3-3-3-3-3-3-3-5-5-5-5-5-5-5-5-0-0-0-0-0-0-0-0-0-0-0-0-0-0-0-0--|


|-------------------------------------------------------------------|
|-------------------------------------------------------------------|
|-------------------------------------------------------------------|
|--5-5-5-5-5-5-5-5--------------------------------------------------|
|--3-3-3-3-3-3-3-3-7-7-7-7-7-7-7-7-2-2-2-2-2-2-2-2-5-5-5-5-5-5-5-5--|
|--3-3-3-3-3-3-3-3-5-5-5-5-5-5-5-5-0-0-0-0-0-0-0-0-3-3-3-3-3-3-3-3--|


|-------------------------------------------------------------------|
|-------------------------------------------------------------------|
|-------------------------------------------------------------------|
|--5-5-5-5-5-5-5-5--------------------------------------------------|
|--3-3-3-3-3-3-3-3-7-7-7-7-7-7-5/4-2~~~~-2~~~~-2~~~~-2~~~~-2~~-2~~--|
|--3-3-3-3-3-3-3-3-5-5-5-5-5-5-3/2-0~~~~-0~~~~-0~~~~-0~~~~-0~~-0~~--|


|-------------------------------------------------------------------|
|-------------------------------------------------------------------|
|o-----------------------------------------------------------------o|
|o-5-5-5-5-5-5-5-5-------------------------------------------------o|
|--3-3-3-3-3-3-3-3-7-7-7-7-7-7-7-7-2-2-2-2-2-2-2-2-2-2-2-2-2-2-2-2--|
|--3-3-3-3-3-3-3-3-5-5-5-5-5-5-5-5-0-0-0-0-0-0-0-0-0-0-0-0-0-0-0-0--|


|-------------------------------------------------------------------|
|-------------------------------------------------------------------|
|-------------------------------------------------------------------|
|--5-5-5-5-5-5-5-5--------------------------------------------------|
|--3-3-3-3-3-3-3-3-7-7-7-7-7-7-7-7-2-2-2-2-2-2-2-2-5-5-5-5-5-5-5-5--|
|--3-3-3-3-3-3-3-3-5-5-5-5-5-5-5-5-0-0-0-0-0-0-0-0-3-3-3-3-3-3-3-3--|


|-------------------------------------------------------------------|
|-------------------------------------------------------------------|
|-------------------------------------------------------------------|
|--5-5-5-5-5-5-5-5--------------------------------------------------|
|--3-3-3-3-3-3-3-3--------------------------------------------------|
|--3-3-3-3-3-3-3-3--------------------------------------------------|
Tap to rate this tab
# A B C D E F G H I J K L M N O P Q R S T U V W X Y Z