Guitaretab - guitar tabs
Song name
# A B C D E F G H I J K L M N O P Q R S T U V W X Y Z
Home / H / Him / Bleed Well tab

Him - Bleed Well tab

-------------------------------------------------------------------------------
			      Bleed Well Solo- HIM
-------------------------------------------------------------------------------
Tabbed by:qstionauthority
Email:t_schneid@verizon.net

Tuning: Standard
Well, no one has tabbed out the solo yet, so here ya go.
                                               
                                               (played on keyboard)
e|---------------------------------------------(------------------)----------|
B|---------------------------------------------(------------------)----------|
G|---------------------------------------------(------------------)----------|
D|-7-9-------------------------------------7---(----------5--4----)----------|
A|-5-7-------------------------------------5---(-0--2-3-0------3--)----------|
E|-----7h8p7--0-5h7p5--0-3h5p3--0-2h3p2-0------(------------------)----------|

e|-------------------------------------------------------------------------------|
B|-------------------------------------------------------------------------------|
G|-------------------------------------------------------------------------------|
D|---------------------------------------7-9-------------------------------------|
A|-2-------------------------------------5-7-------------------------------------|
E|-0--7h8p7--0-5h7p5--0-3h5p3--0-2h3p2-0------7h8p7--0-5h7p5--0-3h5p3--0-2h3p2-0-|
      
      (        played on keyboard      )
e|----(--------------------------------)---------------------------------------|
B|----(--------------------------------)---------------------------------------|
G|----(--------------------------------)---------------------------------------|
D|-7--(---------5--4-------------------)---------------------------------------|
A|-5--(0--2-3-0-------3---0--2-3-0-----)---------------------------------------|
E|----(----------------------------3-2-)---------------------------------------|

Guitar Solo (this is what you came for):     /\
e|---------------------------------12-----14/--\~~~12------------------------|
B|------/~~~~~\---12-15b~~~--12-15----12--------------12-15-12----15-12------|
G|-14br/-------\-----------------------------------------------14-------14---|
D|---------------------------------------------------------------------------|
A|---------------------------------------------------------------------------|
E|---------------------------------------------------------------------------|
[ Tab from: http://www.guitaretab.com/h/him/96961.html ]
e|-------------------12----12----12--------12--------/~~~--------------------|
B|-12----------12-15----15----15-----12-15----15-15b/------------------------|
G|----12---------------------------------------------------------------------|
D|-------14------------------------------------------------------------------|
A|---------------------------------------------------------------------------|
E|---------------------------------------------------------------------------|

WARNING: YOU MAY MELT YOUR OWN FACE OFF DURING THE FOLLOWING

e|-12-14-15-14-15-14-----12-14-15-14-12-----12-14-15-14-12-------------------|
B|-------------------15-----------------15-----------------15----------------|
G|---------------------------------------------------------------------------|
D|---------------------------------------------------------------------------|
A|---------------------------------------------------------------------------|
E|---------------------------------------------------------------------------|

e|12-14-15-14-12-----12-14-15-14-12-----12-14-15-14-12-----12-14-15-14-12----|
B|---------------15-----------------15-----------------15-----------------15-|
G|---------------------------------------------------------------------------|
D|---------------------------------------------------------------------------|
A|---------------------------------------------------------------------------|
E|---------------------------------------------------------------------------|



e|-14-15-17-15-14-----14-15-19-15-14-----14-15-17-15-14-----12-14-15-14-12---|
B|----------------17-----------------17-----------------15-----------------15|
G|---------------------------------------------------------------------------|
D|---------------------------------------------------------------------------|
A|---------------------------------------------------------------------------|
E|---------------------------------------------------------------------------|




                                                               (       *     )
e|-12-15-12----12----------------------------------------------(-------------)|
B|----------15----15-12----15-12----12------------/\/~~~~~-----(-------------)|
G|----------------------14-------14----12-----14b/-------------(-------------)|
D|----------------------------------------14-------------------(-9-----------)|
A|-------------------------------------------------------------(---11--------)|
E|-------------------------------------------------------------(-------------)|

*This part is in the weird part right before the break. Iím not sure if itís
part of the solo, but itís there.

Related for Bleed Well tab