Song name
# A B C D E F G H I J K L M N O P Q R S T U V W X Y Z

Him - Wings Of A Butterfly tab

----------------------------------------------------------------------------
			     WINGS OF A BUTTERFLY - HIM
----------------------------------------------------------------------------
Tabbed by: Shane Allen
Email: Allen5@rock.com

One of the best songs ever made
Tuning: Drop D

   Key
  ------
| /  slide up
| \  slide down
| h  hammer-on
| p  pull-off
| ~  vibrato
| +  harmonic
| x  Mute note


~~~Song Structure~~~
1.Intro
2.Verse
3.Chorus
4.Intro
5.Verse
6.Chorus
7.intro
8.interlude
9.chorus
10.intro

The rythim's not that clear and theres some notes left out but mess around with it and 
to the song for timing.
___________________________________________________________________________

                            repeat once
Intro                     {--------------------------------------------------|
e|---------------------------------------------------------------------------|
B|---6----6---6-4h6p2/4----4---4---4-----2h4p1/2----2---2--1-----------------|
G|-----3----3----------------1----1---1--------------------------------------|
D|----------------------------------------------2-----4----------------------|
A|---------------------------------------------------------------------------|
D|---------------------------------------------------------------------------|


Verse
e|---------------------------------------------------------------|---------|
B|---------------------------------------------------------------|---------|
G|---------------------------------------------------------------|---------|
D|----6-8-8--8-8--6-6--6-6--4-4--4-6--8-8--8-8--6-6--6-6--4-4--4-|-6~~~----|
A|----6-8-8--8-8--6-6--6-6--4-4--4-6--8-8--8-8--6-6--6-6--4-4--4-|-6~~~----|
D|----6-8-8--8-8--6-6--6-6--4-4--4-6--8-8--8-8--6-6--6-6--4-4--4-|-6~~~----|
    p.m -------------------------------------------------------------------|


Chorus
e|-------------------------------------------------------------------------|
B|-------------------------------------------------------------------------|
G|-------------------------------------------------------------------------|
D|------8888-00-6666-65444-6-----------------------------------------------|
A|------8888-00-6666-65444-6-----------------------------------------------|
D|------8888-00-6666-65444-6-----------------------------------------------|

Interlude
e|-------------------------------------------------------------------------|
B|-------------------------------------------------------------------------|
G|-------------------------------------------------------------------------|
D|---------------------------------3--6--5--3--1-1-1-3--6--1~~~------------|
A|---------------------------------3--6--5--3--1-0-1-3--6--1~~~------------|
D|---3~6-5-3--1-1-0-1--3~~-6-1~~---3--6--5--3--1-1-1-3--6--1~~~------------|

____________________________________________________________________________
I love this song and its really not as hard as it sounds.
This is my first tab so tell me whatcha think.

Have fun and remember to head bang!

Rate this tab
Tap to rate this tab
# A B C D E F G H I J K L M N O P Q R S T U V W X Y Z