Song name
# A B C D E F G H I J K L M N O P Q R S T U V W X Y Z

Hives - Bigger Hole To Fill tab

my first tab and i'm 100% sure about this. anything you wanna say? my email is: 
    hope you enjoy

intro:
e|------------------------------|
b|------------------------------|
g|------------------------------|
d|------------------------------|
a|--------5-9----7-7-9-7-5------|
e|--7-5-7------------------7-5--|


pre-chorus:
      B     F#     D     A
e|------------------------------|
b|------------------------------|
g|----------11-----7------------| X2
d|----9-----11-----7-----7------|
a|----9---9-9----5-5-----7------|
e|--7-7----------------5-5------|


chorus:
e|---0~---------|
b|---0~---------|
g|---0~--- <----|upstroke this part
d|---0~---------|
a|--------------|
e|--------------|

B F# D A
B F# D F#
X2

chorus riff:
e|--12-10----------10--|
b|--------12-10-12-----|
g|---------------------|
d|---------------------|
a|---------------------|
e|---------------------|

return from chorus:
e|----------------------|
b|----------------------|
g|----------------------|
d|----------------------|
a|-------9v~--5v~-------|
e|--7v~------------5v~--|

Bridge:

B F# B F# D A
B F# D A

end on F#
Tap to rate this tab
 
# A B C D E F G H I J K L M N O P Q R S T U V W X Y Z