Song name
# A B C D E F G H I J K L M N O P Q R S T U V W X Y Z

Hoey Gary - Linus & Lucy tab

Help us improve GuitareTab! Take a short survey!
-#

From:   Gary L. Walton [glwalton@mail.atl.bellsouth.net]
Sent:   Wednesday, December 17, 1997 11:42 AM

Title:  Linus And Lucy
Artist: Gary Hoey
Source: From ENDLESS SUMMER II
Linus And Lucy was written by Vince Guaraldi
Transcribed by Brian Walton

Tune down 1/2 step
Play with distortion:
              riff 1        ~~~~                 End riff 1
|------------|---------------------|-----------------------|
|------------|-------------8----8--|--------8--8--8--8-----|
|-----x--x---|-------------7----7--|--------7--7--7--7-----| Play riff 1
|-----x--x---|-------------6----6--|--------6--6--6--6-----| Three times
|------------|-------------7----7--|--------7--7--7--7-----|
|------------|-----0---0-----------|-0---0-----------------|

          ~~~~
|----------------|-----------------------|
|---------8----8-|-----------8-----------|
|---------7----7-|-----------7--x\-------|
|---------6----6-|-----------6--x\-------|
|---------7----7-|-----------7--x\-x\----|
|--0---0---------|--0--0--0--------X\----|

|------------------------------------------------------------|
|------------------------------------------------------------|
|-------2--------2------------------------------2-----2------|
|----2--------2----2------2--4---2--4--2----2-------2----2---|
|-0--------0---------0---------0---------0--------0--------0-|
|------------------------------------------------------------|

|-----------------------------|
|-----------------------------|
|-----------------------------|
|---2--4------2--4--2---------|
|---------0-------------------|
|-----------------------------|

***
|-----------------------------------------------------------|
|--2---3/5-----5\3---2-----3-----2------2----3/5---3/5------|
|--2---4/6-----6\4---2-----4-----2------2----4/6---4/6------|
|-----------------------------------------------------------|
|-----------------------------------------------------------|
|-----------------------------------------------------------|

|----------------------------------|
|--2------3/5---5\3----2----3---2--|
|--2------4/6---6\4----2----4---2--|
|----------------------------------|
|----------------------------------|
|----------------------------------|

  1st ending
|-------5-------5---7---|
|-------5-------5---5---|
|-----------------------|    go back to the ***
|-----------------------|
|-----------------------|
|-----------------------|

then,
|-----------------------|
|---5-------5---7-------|
|---6-------6---6-------|
|---7-------7---7-------|
|-----------------------|
|-----------------------|


Does any one know how to play Yeah?
Related for Linus & Lucy tab