Song name
# A B C D E F G H I J K L M N O P Q R S T U V W X Y Z

Hoey Gary - Peace Pipe tab

Intro

E-17-16-17--------------------------------|
B------------10-9-10----------------------|
G-----------------------------------------|
D----------------------7-6-7--------------|
A-----------------------------------------|
E-------------------------------5-4-5-----|

Part 1

E-9-12-9----12---------9----------------------------------------------|
B--------12----10---10---10----10-----------(12>14)-12-----10>12-10---|
G---------------------------11---------9--9------------7-7------------|
D-----------------------------------12--------------------------------|
A---------------------------------------------------------------------|
E---------------------------------------------------------------------|

E--------------------|
B---12-10--10--------|
G-9--------9---------|
D--------------------|
A--------------------|
E--------------------|

Part 2

E------------------------------------------------|
B---10-8-10-8------------------------------------|
G-9-----------9-7----7------5-----4-4-4----------|
D-----------------10---9------7---------6--------|
A------------------------10-----8---------7------|
E------------------------------------------------|

Now play Part 1 again.

Part 3

E-------------------------------------------------------------------------|
B----14-21-10----14-12-10----14-12-10----14-12-10---14-12-9---14-12-9-10--|
G-11----------11----------10----------10----------9---------9-------------|
D-------------------------------------------------------------------------|
A-------------------------------------------------------------------------|
E-------------------------------------------------------------------------|

Then play part 1, followed by part 3.

Outro

E---------------17-16-17------14-------------|
B-------10-9-10-----------2---14-------------|
G-------------------------2------------------|
D-7-6-7-------------------2------------------|
A-------------------------0------------------|
E--------------------------------------------|
Tap to rate this tab
# A B C D E F G H I J K L M N O P Q R S T U V W X Y Z