Guitaretab - guitar tabs
Song name
# A B C D E F G H I J K L M N O P Q R S T U V W X Y Z

Hoku - You First Believed tab

You First Believed - HOKU

Tabbed by: bernard
add me; guitahfreak@yahoo.com

Standard Tuning: CAPO 4th Fret

Chords Used:

G 	320033
G/B	x20033
C	x32033
Bm7	x24232
Am7/E	002010
Em	022000
F#m	244222

Legend:

~ - let ring

  G      G/B      C        C
e-----3--------3------3-------3--------|
B-3------3--------3-----3--3-----------|
G---0--------0------0--------0---------|
D--------------------------------------|
A--------2--------3--------3-----------|
E-3------------------------------------|

how many times that i pray you find me

  G      G/B      C        C
e-----3--------3------3-------3--------|
B-3------3--------3-----3--3-----------|
G---0--------0------0--------0---------|
D--------------------------------------|
A--------2--------3--------3-----------|
E-3------------------------------------|

how many wishes on the star


  Bm7           Am7         C
e-----2----2-------0-----0------3------3--|
B-3---2-3--3---1-----1---1--3-----3-3-----|
G---2-----2------0-----0------0-------0---|
D-----------------------------------------|
A-2-----2------0-----0------3-------3-----|
E-----------------------------------------|

Safe at home unafraid
captured in your embrace


Stanza II: Same lang po

so many times when my heart was broken
visions of you would keep me strong
you were with me all along
guiding my every step
you were all that i am
and i'll never forget


Chorus: Pwede nio i-strum or do this
[ Tab from: http://www.guitaretab.com/h/hoku/102645.html ]
  G      G/B      C        C
e-----3--------3------3-------3--------|
B-3------3--------3-----3--3-----------|
G---0--------0------0--------0---------|
D--------------------------------------|
A--------2--------3--------3-----------|
E-3------------------------------------|

it was you who first believe


  G      G/B      C        C
e-----3--------3------3-------3--------|
B-3------3--------3-----3--3-----------|
G---0--------0------0--------0---------|
D--------------------------------------|
A--------2--------3--------3-----------|
E-3------------------------------------|


in all that i was made to be


  G      G/B      C        C
e-----3--------3------3-------3--------|
B-3------3--------3-----3--3-----------|
G---0--------0------0--------0---------|
D--------------------------------------|
A--------2--------3--------3-----------|
E-3------------------------------------|

it was you looking in my eyes


 G      G/B      C        C
e-----3--------3------3-------3--------|
B-3------3--------3-----3--3-----------|
G---0--------0------0--------0---------|
D--------------------------------------|
A--------2--------3--------3-----------|
E-3------------------------------------|


you held my hand and(you) showed me life

  Am7/E     Bm7      C
e----0------2------3~----------------|
B-1-------3--3-----3~----------------|
G--------------0---0-----------------|
D------------------2~----------------|
A---------2--------3~----------------|
E-0----------------------------------|

and i've never been the same since you first believed

Stanza III: Use the same Pattern

there were times when i'd thoughti'd lost you
fearing forever was a dream
but it was'nt what it seems
placing your hand in mine
you could see in the dark
you were guiding my heart

Chorus

Bridge:

Em - F#m - C Use these chords strumming po ito

Chorus
Related for You First Believed tab
Advertisement will be closed in 10 seconds