Song name
# A B C D E F G H I J K L M N O P Q R S T U V W X Y Z

Hoku - You First Believe tab

----------------------------------------------------------------------------
                         You First Believe - Hoku
----------------------------------------------------------------------------
Transcribed By : Harold D. Lladoc
From           : Montalban Rizal
School         : Roosevelt College Cainta
Email          : lod_lladoc@yahoo.com
----------------------------------------------------------------------------

Verse1:
               B          B/Eb                F#sus/E
E|--------------------7-|-----------7-------|-------7----------------------|
B|-----------------7----|--7----------7-----|-7--------7------7------------|
G|----------------------|-------------------|-----------------6------------|
D|----------------------|-------------------|------------------------------|
A|----------------------|--6----------------|-7---------------7------------|
E|-------------7--------|-------------------|------------------------------|
     How many times       did I pray you'd    find me...

               B          B/Eb                F#sus/E
E|----7---------------7-|-----------7-------|-------7----------------------|
B|-------7---------7----|--7----------7-----|-7--------7-------------------|
G|----------------------|-------------------|------------------------------|
D|----------------------|-------------------|------------------------------|
A|----------------------|--6----------------|-7----------------------------|
E|-------------7--------|-------------------|------------------------------|
     How many wishes       on a               star,

             F#sus/E       G#m                             C#
E|----------------------|-----------4-------|------------------------------|
B|-----------7----------|---------4---4-----|--------------6---------6-----|
G|-----------6----------|-------------4-----|--------------6---------6-----|
D|----------------------|-------------------|------------------------------|
A|-----------7----------|-------------------|--------------4---------4-----|
E|----------------------|--4----------4-----|------------------------------|
     Gazing off into the  dark                Dreaming I'd see your face

             F#sus/E                 F#sus/E
E|----------------7-----|-------------------7------------------------------|
B|-----------7-------7--|------------7----------7--------------------------|
G|-----------6-------6--|------------6----------6--------------------------|
D|----------------------|--------------------------------------------------|
A|-----------7-------7--|------------7----------7--------------------------|
E|----------------------|--------------------------------------------------|
   Safe at home unafraid,  Captured in your embrace.

Verse2:
               B          B/Eb                F#sus/E
E|--------------------7-|-----------7-------|-------7----------------------|
B|-----------------7----|----7--------7-----|-7--------7------7------------|
G|----------------------|-------------------|-----------------6------------|
D|----------------------|-------------------|------------------------------|
A|----------------------|----6--------------|-7---------------7------------|
E|-------------7--------|-------------------|------------------------------|
     So many times when my heart      was    broken,

              B          B/Eb                F#sus/E
E|----7---------------7-|-----------7-------|-------7----------------------|
B|-------7---------7----|--7----------7-----|-7--------7-------------------|
G|----------------------|-------------------|------------------------------|
D|----------------------|-------------------|------------------------------|
A|----------------------|--6----------------|-7----------------------------|
E|-------------7--------|-------------------|------------------------------|
   Visions of you would   keep      me       strong.

              F#sus/E      G#m                C#
E|----------------------|-----------4-------|------------------------------|
B|-----------7----------|---------4---4-----|--------------6---------6-----|
G|-----------6----------|-------------4-----|--------------6---------6-----|
D|----------------------|-------------------|------------------------------|
A|-----------7----------|-------------------|--------------4---------4-----|
E|----------------------|--4----------4-----|------------------------------|
   You were with me all   along,              Guiding my   e - very step.

F#sus/E                 F#sus/E
E|----------------7-----|----------------------7---------------------------|
B|-----------7-------7--|---------------7----------7-----------------------|
G|-----------6-------6--|---------------6----------6-----------------------|
D|----------------------|--------------------------------------------------|
A|-----------7-------7--|---------------7----------7-----------------------|
E|----------------------|--------------------------------------------------|
    You are all that I am     And I'll never   for-get.

Chorus:
             B          B/Eb                F#sus/E
E|--------------------7-|-----------7-------|-------7----------------------|
B|-----------------7----|--7----------7-----|-7--------7------7------------|
G|----------------------|-------------------|-----------------6------------|
D|----------------------|-------------------|------------------------------|
A|----------------------|--6----------------|-7---------------7------------|
E|-------------7--------|-------------------|------------------------------|
       It was you,                 who        first believed

          B               B/Eb                F#sus/E
E|----7---------------7-|-----------7-------|-------7----------------------|
B|-------7---------7----|--7----------7-----|-7--------7------7------------|
G|----------------------|-------------------|-----------------6------------|
D|----------------------|-------------------|------------------------------|
A|----------------------|--6----------------|-7---------------7------------|
E|-------------7--------|-------------------|------------------------------|
           In all that     I         was      made to be.

             B            B/Eb                F#sus/E
E|----7---------------7-|-----------7-------|-------7----------------------|
B|-------7---------7----|--7----------7-----|-7--------7------7------------|
G|----------------------|-------------------|-----------------6------------|
D|----------------------|-------------------|------------------------------|
A|----------------------|--6----------------|-7---------------7------------|
E|-------------7--------|-------------------|------------------------------|
    It was    you,                 looking    in my eyes.

             B            B/Eb                F#sus/E
E|----7---------------7-|-----------7-------|-------7----------------------|
B|-------7---------7----|--7----------7-----|-7--------7------7------------|
G|----------------------|-------------------|-----------------6------------|
D|----------------------|-------------------|------------------------------|
A|----------------------|--6----------------|-7---------------7------------|
E|-------------7--------|-------------------|------------------------------|
         You held my       hand and          showed me life.

              G#m          F#/Bb               F#sus/E
E|-------------4--------|-------------------|------------------------------|
B|-------------4--------|--7----------------|-7----------------------------|
G|----------------------|--6----------------|-6----------------------------|
D|----------------------|-------------------|------------------------------|
A|----------------------|-------------------|-7----------------------------|
E|-------------4--------|--6----------------|------------------------------|
    And I've never         been the           same,
                          
                     B          B/Eb                F#sus/E
E|--------------------------7-|-----------7-------|-------7----------------|
B|-----------------------7----|--7----------7-----|-7--------7------7------|
G|----------------------------|-------------------|-----------------6------|
D|----------------------------|-------------------|------------------------|
A|----------------------------|--6----------------|-7---------------7------|
E|-------------------7--------|-------------------|------------------------|
  Since you first believed.

               B          B/Eb                F#sus/E
E|---7----------------7-|-----------7-------|-------7----------------------|
B|------7----------7----|--7----------7-----|-7--------7------7------------|
G|----------------------|-------------------|-----------------6------------|
D|----------------------|-------------------|------------------------------|
A|----------------------|--6----------------|-7---------------7------------|
E|-------------7--------|-------------------|------------------------------|

Verse3:
               B          B/Eb                F#sus/E
E|--7-----------------7-|-----------7-------|-------7----------------------|
B|----7------------7----|--7----------7-----|-7--------7------7------------|
G|----------------------|-------------------|-----------------6------------|
D|----------------------|-------------------|------------------------------|
A|----------------------|--6----------------|-7---------------7------------|
E|-------------7--------|-------------------|------------------------------|
  There were times when I thought I'd        lost you,

               B          B/Eb                F#sus/E
E|--7-----------------7-|-----------7-------|-------7----------------------|
B|----7------------7----|--7----------7-----|-7--------7-------------------|
G|----------------------|-------------------|------------------------------|
D|----------------------|-------------------|------------------------------|
A|----------------------|--6----------------|-7----------------------------|
E|-------------7--------|-------------------|------------------------------|
  Fearing  for-ever        was a dream.

             F#sus/E       G#m                             C#
E|----------------------|-----------4-------|------------------------------|
B|-----------7----------|---------4---4-----|--------------6---------6-----|
G|-----------6----------|-------------4-----|--------------6---------6-----|
D|----------------------|-------------------|------------------------------|
A|-----------7----------|-------------------|--------------4---------4-----|
E|----------------------|--4----------4-----|------------------------------|
   But it wasn't what it seemed,              Placing your hand in mine,

   F#sus/E                 F#sus/E
E|----------------7-----|-------------------7------------------------------|
B|-----------7-------7--|------------7----------7--------------------------|
G|-----------6-------6--|------------6----------6--------------------------|
D|----------------------|--------------------------------------------------|
A|-----------7-------7--|------------7----------7--------------------------|
E|----------------------|--------------------------------------------------|
You could see in the dark,  You were guiding my heart.

Chorus:
             B          B/Eb                F#sus/E
E|--------------------7-|-----------7-------|-------7----------------------|
B|-----------------7----|--7----------7-----|-7--------7------7------------|
G|----------------------|-------------------|-----------------6------------|
D|----------------------|-------------------|------------------------------|
A|----------------------|--6----------------|-7---------------7------------|
E|-------------7--------|-------------------|------------------------------|
       It was you,                 who        first believed

          B               B/Eb                F#sus/E
E|----7---------------7-|-----------7-------|-------7----------------------|
B|-------7---------7----|--7----------7-----|-7--------7------7------------|
G|----------------------|-------------------|-----------------6------------|
D|----------------------|-------------------|------------------------------|
A|----------------------|--6----------------|-7---------------7------------|
E|-------------7--------|-------------------|------------------------------|
           In all that     I         was      made to be.

             B            B/Eb                F#sus/E
E|----7---------------7-|-----------7-------|-------7----------------------|
B|-------7---------7----|--7----------7-----|-7--------7------7------------|
G|----------------------|-------------------|-----------------6------------|
D|----------------------|-------------------|------------------------------|
A|----------------------|--6----------------|-7---------------7------------|
E|-------------7--------|-------------------|------------------------------|
    It was    you,                 looking    in my eyes.

             B            B/Eb                F#sus/E
E|----7---------------7-|-----------7-------|-------7----------------------|
B|-------7---------7----|--7----------7-----|-7--------7------7------------|
G|----------------------|-------------------|-----------------6------------|
D|----------------------|-------------------|------------------------------|
A|----------------------|--6----------------|-7---------------7------------|
E|-------------7--------|-------------------|------------------------------|
         You held my       hand and          showed me life.

              G#m          F#/Bb               F#sus/E
E|-------------4--------|-------------------|------------------------------|
B|-------------4--------|--7----------------|-7----------------------------|
G|----------------------|--6----------------|-6----------------------------|
D|----------------------|-------------------|------------------------------|
A|----------------------|-------------------|-7----------------------------|
E|-------------4--------|--6----------------|------------------------------|
    And I've never         been the           same,
                          
                     G#m                   F#                      E
E|-------------------4--------|--4----------2-----|--2--------------0------|
B|-------------------4--------|--4----------2-----|--2--------------0------|
G|----------------------------|-------------------|-----------------1------|
D|----------------------------|-------------------|-----------------2------|
A|----------------------------|-------------------|-----------------2------|
E|-------------------4--------|--4----------2-----|--2--------------0------|
  Since you first believed.      Ooo    -  ho        ho - Oo   -   Oh 

(PAUSE)

Chorus:
             B          B/Eb                F#sus/E
E|--------------------7-|-----------7-------|-------7----------------------|
B|-----------------7----|--7----------7-----|-7--------7------7------------|
G|----------------------|-------------------|-----------------6------------|
D|----------------------|-------------------|------------------------------|
A|----------------------|--6----------------|-7---------------7------------|
E|-------------7--------|-------------------|------------------------------|
       It was you,                 who        first believed

          B               B/Eb                F#sus/E
E|----7---------------7-|-----------7-------|-------7----------------------|
B|-------7---------7----|--7----------7-----|-7--------7------7------------|
G|----------------------|-------------------|-----------------6------------|
D|----------------------|-------------------|------------------------------|
A|----------------------|--6----------------|-7---------------7------------|
E|-------------7--------|-------------------|------------------------------|
           In all that     I         was      made to be.

             B            B/Eb                F#sus/E
E|----7---------------7-|-----------7-------|-------7----------------------|
B|-------7---------7----|--7----------7-----|-7--------7------7------------|
G|----------------------|-------------------|-----------------6------------|
D|----------------------|-------------------|------------------------------|
A|----------------------|--6----------------|-7---------------7------------|
E|-------------7--------|-------------------|------------------------------|
    It was    you,                 looking    in my eyes.

             B            B/Eb                F#sus/E
E|----7---------------7-|-----------7-------|-------7----------------------|
B|-------7---------7----|--7----------7-----|-7--------7------7------------|
G|----------------------|-------------------|-----------------6------------|
D|----------------------|-------------------|------------------------------|
A|----------------------|--6----------------|-7---------------7------------|
E|-------------7--------|-------------------|------------------------------|
         You held my       hand and          showed me life.

              G#m          F#/Bb               F#sus/E
E|-------------4--------|-------------------|------------------------------|
B|-------------4--------|--7----------------|-7----------------------------|
G|----------------------|--6----------------|-6----------------------------|
D|----------------------|-------------------|------------------------------|
A|----------------------|-------------------|-7----------------------------|
E|-------------4--------|--6----------------|------------------------------|
    And I've never         been the           same,
                          
                     B          B/Eb                F#sus/E
E|--------------------------7-|-----------7-------|-------7----------------|
B|-----------------------7----|--7----------7-----|-7--------7------7------|
G|----------------------------|-------------------|-----------------6------|
D|----------------------------|-------------------|------------------------|
A|----------------------------|--6----------------|-7---------------7------|
E|-------------------7--------|-------------------|------------------------|
  Since you first believed.

               B          B/Eb                F#sus/E
E|---7----------------7-|-----------7-------|-------7----------------------|
B|------7----------7----|--7----------7-----|-7--------7------7------------|
G|----------------------|-------------------|-----------------6------------|
D|----------------------|-------------------|------------------------------|
A|----------------------|--6----------------|-7---------------7------------|
E|-------------7--------|-------------------|------------------------------|
    Ooh   -   Hoo
               B                              F#sus/E
E|----------------------|-------------------|------------------------------|
B|-------------7--------|-------------------|-7----------------------------|
G|-------------6--------|-------------------|-6----------------------------|
D|----------------------|-------------------|------------------------------|
A|----------------------|-------------------|-7----------------------------|
E|-------------7--------|-------------------|------------------------------|
     How many times did I pray you'd          find me...

            F#sus/E        F#/Bb
E|----------------------|-------------------------------------------------|
B|------------7---------|---7---------------7-----------------------------|
G|------------6---------|---6---------------6-----------------------------|
D|----------------------|-------------------------------------------------|
A|------------7---------|-------------------7-----------------------------|
E|----------------------|---6---------------0-----------------------------|
   How many wishes         on a           star...

+-------------------------------------------------------------------------+
|                              CHORD CHART				  |
+-------------------------------------------------------------------------+

B			B/Eb			F#sus/E
        +->7TH fRET	        +->7TH fRET		+->7TH fRET
        |		        |			|
E |---|-X-|---|		E |---|-X-|---|		E |---|-X-|---|
B |---|-X-|---|		B |---|-X-|---|		B |---|-X-|---|
G |---|---|---|  	G |---|---|---|		G |-X-|---|---|
D |---|---|---|		D |---|---|---|		D |---|---|---|
A |---|---|---|		A |-X-|---|---|		A |---|-X-|---|
E |---|-X-|---|		E |---|---|---|		E |---|---|---|


G#m 			C#			F#/Bb
    +->4TH fRET		    +->4TH fRET		        +->6TH fRET
    |			    |			 	|
E |-X-|---|---|		E |-X-|---|---|		E |---|---|---|
B |-X-|---|---|		B |---|---|-X-|		B |---|---|-X-|
G |-X-|---|---|  	G |---|---|-X-|		G |---|-X-|---|
D |---|---|-X-|		D |---|---|-X-|		D |---|---|---|
A |---|---|-X-|		A |-X-|---|---|		A |---|---|---|
E |-X-|---|---|		E |---|---|---|		E |---|-X-|---|

F# 			E			
    +->2ND fRET		    +->1ST fRET		
    |			    |			
E |-X-|---|---|		E 0|---|---|---|	
B |-X-|---|---|		B 0|---|---|---|	
G |---|-X-|---|  	G  |-X-|---|---|	
D |---|---|-X-|		D  |---|-X-|---|	
A |---|---|-X-|		A  |---|-X-|---|	
E |-X-|---|---|		E 0|---|---|---|	
			  |
			  +-> oPEN sTRINGS
Tap to rate this tab
 
# A B C D E F G H I J K L M N O P Q R S T U V W X Y Z