Song name
# A B C D E F G H I J K L M N O P Q R S T U V W X Y Z

Hole - Celebrity Skin tab

Hole - Celebrity Skin (Celebrity Skin)

 Main Riff x4

e- ----------------------------------------------------|
B- ----------------------------------------------------|
G- ----------------------------------------------------|
D- ----6/4---------------------------------------------|
A- -7--4/2--4------------------------------------------|
E- -5-------2------------------------------------------|


 Chorus 1

e- -----------------------------5----5-----------------|
B- -3-----3---------------------6----6-----------------|
G- -2-----2---------------------5----5-----------------|
D- -0--2--0--2-----4--4/5/6/7---7-7--7-7---------------|
A- -0--0--0--0--4--2--2/3/4/5---5-5--5-5---------------|
E- -------------2--------------------------------------|


 Main Riff x4


 Chorus 2

e- -----------------------------5----5---/--9----------|
B- -3-----3---------------------6----6---/---10--------|
G- -2-----2---------------------5----5---/-----9-------|
D- -0--2--0--2-----4--4/5/6/7---7-7--7-7-/11----11-----|
A- -0--0--0--0--4--2--2/3/4/5---5-5--5-5-/9------------|
E- -------------2--------------------------------------|


 Bridge

e- --------------------------|---------9---------------|
B- ------10-------10---(x3)--|------10----10-----------|
G- ----9(9)-----9(9)---------|----9----------9---------|
D- -11-------12------12------|-11-------------(11)-----| x3
A- --------------------------|-------------------------|
E- --------------------------|-------------------------|


e- --------------------------|-------------------------|
B- ------10-------10-----(x3)|-------------------------|
G- ----9(9)-----9(9)---------|-------------------------|
D- -11-------12------12------|-------------------------|
A- --------------------------|-4-----------------------|
E- --------------------------|-2-----------------------|


 Main Riff x4


 Chorus 2


 Bridge


 Main Riff x3


 Ending

e- ----------------------------------------------------|
B- ----------------------------------------------------|
G- ----------------------------------------------------|
D- ----6-----------------------------------------------|
A- -7--4--4--------------------------------------------|
E- -5-----2--------------------------------------------|
Tap to rate this tab
# A B C D E F G H I J K L M N O P Q R S T U V W X Y Z