Song name
# A B C D E F G H I J K L M N O P Q R S T U V W X Y Z

Holly Buddy - Because I Love You tab

1st verse
e|----------------------------------------4---4h5---2--------------------|
B|----------------0-------------4----------------------------4h5-4-------|
G|--1h2--1----------1---------4---4------------------------4-------4-----|
D|-------------2------2-----4-------4--------------------4-----------4---|
A|-----------2--------------------------0---0-----0----4-----------------|
E|-------0--------------0-4----------------------------------------------|
There was a time...
e|---------------------------------------------------------------------|
B|--------2--------3--------------------------------------5------------|
G|------1--------1----------1-----------1--2--4--1---------------------|
D|----2--------0----------2-----------4-------------4--2---------------|
A|--0--------2----------2------------------0-----2--2--0---------------|
E|--------------------0------------------------------------------------|
Love's never been very kind of me.
e|---------------------------------------------------------------------|
B|--------4h5-4--------------4----------5------------4-----------------|
G|------4-------4--------4-----4------4---4--------4---4---------------|
D|----4-----------4----4---4--------4-------4----4-------4-------------|
A|--------------------------------4------------------------------------|
E|--0----------------4-------------------------4-----------------------|
You stole my heart away
e|---------------------------------------------------------------------|
B|--------4------------4-----------------------------------------------|
G|------4---4--------4-------1--2--4--1--------------------------------|
D|----4-------4----4-------4-------------4--2---2s4--------------------|
A|--4---------------------------0-----2--2--0--------------------------|
E|---------------4-----------------------------------------------------|
somehow you helped restore my faith.

chorus
e|--------5p4--------------------------------------------------------------|
B|-------------------------4----------2----------------5-4-5--7-7--5--7--9-|
G|------4-----4--------4-----4------1----------------4-------------4-------|
D|----4---------4----4---4--------2----------------4-----------------------|
A|------------------------------0--------0-0h4-2----------------6--4--6--7-|
E|--0--------------4-----------------------------0-------------------------|

e|---------------------------------------------------------------------|
B|---------------------------------------0-------------4---------------|
G|--2-1----2-1----2--4-----------------4---4---------4---4-------------|
D|------2------2---------2-2-2s4-----4-------4-----4-------4-----------|
A|--0------0------0------0---------------------------------------------|
E|---------------------------------0-----------0-4---------------------|

e|----------------------------------------------------------------------|
B|--5--4---------4---------5------4----5-------------------------------|
G|--4--4-------4---4--------4------4---4-------1--2--4--1---------------|
D|-----------4-------4-------4------4--------4-------------4--2--2s4----|
A|--4--4---4-----------4------4------4------------0-----2--2--0---------|
E|---------------------------------------------------------------------|


2nd verse (same as first)

(Refrain)

(Chorus)

Outro
e|----------------------------------------------------------0----------|
B|------------------------------5-----------5--4-----------0-----------|
G|-----1--2---4---------------4---4-------4------4--------1------------|
D|---4------------2--2s4----4-------4--------------4-----2-------------|
A|--------0---4---0---------------------4---------------2--------------|
E|------------------------0----------------------------0---------------|
Tap to rate this tab
# A B C D E F G H I J K L M N O P Q R S T U V W X Y Z