Song name
# A B C D E F G H I J K L M N O P Q R S T U V W X Y Z

Holly Throsby - As The Night Dies tab

Highlighted       Show chord diagrams
capo 1st

intro

e-----------------------0----------------------3--3--|
B--------3-------3-------3----3-----3--------2--2----|
G------0---0---0--0--------0-----0-0-----3--3--3-----|
D---------------------------------------0---------0--|
A--------------------------------3-------------------|
E-2-h3-------2-------0-------------------------------|


G     F#/G                Em7
Babe, it is hard to be honest

C9             D
As the crow flies

G F#/G           Em7
and babe i have known to be careless

C9 D
I\'ve made dogs cry

C9 D
I\'ve thrown logs on the fire

G F#/G Em7
That burn like a fight in the night

C9 D G
Is is too much for you, well alright


bridge

Tabbed up from the nut not the capo. ie 9 = ninth fret

e--------------------------------------|
B----9---11------14---13---11---9------|
G----8---10------12---12---12---8------|
D--------------------------------------|
A--------------------------------------|
E--------------------------------------|


 G F#/G Em7 C9 D
e-------3--------3-------3-------3-------2----|
B-------3--------3-------3-------3-------3----|
G-------0--------0-------0-------0-------2----|
D-------0--------0-------2-------2-------0----|
A-------2--------0-------2-------3-------x----|
E-------3--------2-------0-------x-------x----|
Tap to rate this tab
# A B C D E F G H I J K L M N O P Q R S T U V W X Y Z