Song name
# A B C D E F G H I J K L M N O P Q R S T U V W X Y Z

Hollywood Undead - Sell Your Soul tab

  HOLLYWOOD UNDEAD - SELL YOUR SOUL - SWAN SONGS
  DROP D TUNING (DADGBE)
  APPROX. 140 bpm

  TABBED BY: nfrench7fold

  I tabbed this with both the guitar and the keyboard parts
  and I put the names of the notes so you can find them on
  your piano or whatever. NOTE: This is how they play it live
  on the Desperate Measures DVD. Any thing i did wrong let me
  know.


 Piano fill (Keyboard 1, Guitar 1)
 Piano
|------------------------------------------------------|
|-10--7---10--7---12--7---9---7------------------------|
|------------------------------------------------------|
|------------------------------------------------------|
|------------------------------------------------------| play 8 times
|------------------------------------------------------|
  A   Gb  A   Gb  B   Gb  Ab  Gb

 Guitar
|--------------------------------------------|
|--------------------------------------------|
|-7---4---7---4---6---4---6---4--------------|
|--------------------------------------------|
|--------------------------------------------|
|--------------------------------------------| play 8 times

 Intro/Chorus (Keyboard 1, Guitar 1)
 Piano
|-------------------------|-------------------------|
|-10-7--10-7--9--7--10-7--|-10-7--10-7--10-7--9--7--|
|-------------------------|-------------------------|
|-------------------------|-------------------------|
|-------------------------|-------------------------|
|-------------------------|-------------------------|
  A  Gb A  Gb Ab Gb A  Gb   A  Gb A  Gb A  Gb Ab Gb


|-------------------------|-------------------------|
|-10-7--10-7--9--7--9--7--|-10-7--10-7--9--7--9--7--|
|-------------------------|-------------------------|
|-------------------------|-------------------------|
|-------------------------|-------------------------|
|-------------------------|-------------------------|
  A  Gb A  Gb Ab Gb Ab Gb   A  Gb A  Gb Ab Gb Ab Gb


 Guitar 1
|-----------------|-----------------|-----------------|---------------------|
|-----------------|-----------------|-----------------|---------------------|
|-----------------|-----------------|-----------------|---------------------|
|-0-0-0-0-0-0-0-0-|-2-2-2-2-2-2-2-2-|-4-4---4-4---4---|-7-7---7-7---7-------|
|-0-0-0-0-0-0-0-0-|-2-2-2-2-2-2-2-2-|-4-4---4-4---4---|-7-7---7-7---7-------|
|-0-0-0-0-0-0-0-0-|-2-2-2-2-2-2-2-2-|-4-4---4-4---4---|-7-7---7-7---7-------|


|-----------------|-----------------|-----------------|---------------------|
|-----------------|-----------------|-----------------|---------------------|
|-----------------|-----------------|-----------------|---------------------|
|-0-0-0-0-0-0-0-0-|-2-2-2-2-2-2-2-2-|-4-4---4-4---4-4-/-7-7-7-7-7-7-7-------|
|-0-0-0-0-0-0-0-0-|-2-2-2-2-2-2-2-2-|-4-4---4-4---4-4-/-7-7-7-7-7-7-7-------|
|-0-0-0-0-0-0-0-0-|-2-2-2-2-2-2-2-2-|-4-4---4-4---4-4-/-7-7-7-7-7-7-7-------|


 Verse (Keyboard 1, Guitar 1)
 Synth
|----------------------------------------------|
|----------------------------------------------|
|----------------------------------------------|
|----------------------------------------------|
|----------------------------------------------|
|-0-7-0-9-------0-9-0-6-----6--7---------------|
  D A D B       D B D Ab    Ab A

 Guitar
|--------------------------------------------|
|--------------------------------------------|
|--------------------------------------------|
|--------------------------------------------|
|--------------------------------------------|
|-0-7-0-9-0-0-0-0-9-0-6-0-0-6-7--------------|
  *   *   * * * *   *   * *       [mute string when playing open D]


 Bridge (Keyboard 1, Guitar 1)
 Piano
|---------------------------------------------------------|
|---------------------------------------------------------|
|-----2--4--2--1--2-----2--4--2--1--2---------------------|
|-4------------------4-----------------4--2--0------------|
|-----------------------------------------------4--4------| play twice
|---------------------------------------------------------|
  Gb  A  B  A  Ab A  Gb A  B  A  Ab A  Gb E  D  Db Db

 Guitar
|---------|---------|---------|-----------------|
|---------|---------|---------|-----------------|
|---------|---------|---------|-----------------|
|-4-4-4-4-|-2-2-2-2-|-0-0-0-0-|-0-0-0-0---------|
|-4-4-4-4-|-2-2-2-2-|-0-0-0-0-|-0-0-0-0---------|
|-4-4-4-4-|-2-2-2-2-|-0-0-0-0-|-0-0-0-0---------| play 4 times


 Ending (Keyboard 1, Guitar 1)
 Piano
|------------------------------------------------------|
|-10--7---10--7---12--7---9---7------------------------|
|------------------------------------------------------|
|------------------------------------------------------|
|------------------------------------------------------|
|------------------------------------------------------|
  A   Gb  A   Gb  B   Gb  Ab  Gb


 Guitar
|------------------------------------------|
|------------------------------------------|
|------------------------------------------|
|-0-0-0-0-0-0-0-0--2-2-2-2-2-2-2-2---------|
|-0-0-0-0-0-0-0-0--2-2-2-2-2-2-2-2---------|
|-0-0-0-0-0-0-0-0--2-2-2-2-2-2-2-2---------|

|---------------------------------|
|---------------------------------|
|---------------------------------|
|-4-4--4-4--4----4-4--4-4--4------|
|-4-4--4-4--4----4-4--4-4--4------|
|-4-4--4-4--4----4-4--4-4--4------|


LYRICS:

I'm holding on so tightly now.
My insides scream so loud.
They keep watching, watching me drown.
How did it come to this?

How did it come to this?
How did I know it was you?
It was a bad dream, asphyxiated watch me bleed.
The life support was cut, the knot was too tight.
They push and pull me but they know they'll never win.

[Chorus]
Throw it all away, throw it all away.
I keep on screaming but, there's really nothing left to say.
So get away, just get away.
I keep on fighting but, I cant keep going on this way.

I cant keep going, cant keep going on like this.
They make me sick.
And I get so sick of it.
Cause they wont let me, they wont let me breathe.
Why cant they let me be?

Why cant they let me be?
Why don't I know what I am?
I force this hate into my heart cause its my only friend.
My lips are sewn shut, I watch myself bleed.
They push and pull me and its killing me within.

[Chorus]

I cant keep going, cant keep going on this way
I cant keep going, cant keep going on this way

My heart beat stumbles and my back bone crumbles.
I feel is it real, as the lynch mob doubles.
They want blood and they'll kill for it.
Drain me and they'll kneel for it.
Burn me at the stake, met the devil made the deal for it.
Guillotine dreams yeah there guillotine gleams
the blood of there enemies watching while they sentence me.
Sentencing ceased sentence decease
and watch them bask in the glory of their holy disease.

[Chorus]

I keep on running
I keep on running
I keep on running
But I cant keep going on this way

I keep on running
I keep on running
I keep on running
But I cant keep going on this way


SONG ORDER:
Piano fill              (Keyboard 1, Guitar 1)
Intro/Chorus            (Keyboard 1, Guitar 1)
Verse                   (Keyboard 1, Guitar 1)
Intro/Chorus            (Keyboard 1, Guitar 1)
Piano fill              (Keyboard 1)
Verse                   (Keyboard 1, Guitar 1)
Intro/Chorus            (Keyboard 1, Guitar 1)
Bridge                  (Keyboard 1, Guitar 1)
Intro/Chorus            (Keyboard 1, Guitar 1)
Ending                  (Keyboard 1, Guitar 1)
Tap to rate this tab
 
# A B C D E F G H I J K L M N O P Q R S T U V W X Y Z