Song name
# A B C D E F G H I J K L M N O P Q R S T U V W X Y Z

Honor By August - Found tab

-------------------------------------------------------------------------------
			     SONG NAME - Band Name
-------------------------------------------------------------------------------
Tabbed by: SimiZ
Email: agloco141@gmail.com
Comments: Tab was made by ear in a hurry, so If you see any mistekas, write it in the 
comments, I'll fix.


Tuning: Standart
Key: E major

Intro:

Chords : E E Esus2 B

   E                E           Esus2              B
e|---7-----7------7---7-----7------7---7-----7-----7---7-----7-----7---|
B|-----9-----9----------9-----9----------7-----7---------7-----7-------|
G|-9-----9-----9----9-----9-----9----9-----9-----9---8-----8-----8-----|
D|---------------------------------------------------------------------|
A|---------------------------------------------------------------------|
E|---------------------------------------------------------------------|

Verse:

e|-7-------------7-------------7---------------------------------|
B|-9-------------7-------------9---------------------------------|
G|-9-------------9-------------9---------------------------------| x4
D|---------------------------------------------------------------|
A|---------------------------------------------------------------|
E|---------------------------------------------------------------|

e|---------------------------------------------------------------|
B|---------------------------------------------------------------|
G|-8h9--9-9-9-9---8h9--9-9-9-9---8h9--9-9-9-9---8h9--9-9-9-9-----| x2
D|---------------------------------------------------------------|
A|---------------------------------------------------------------|
E|---------------------------------------------------------------|

Chorus:

[ Strum 2 bars each (Both E chords) ] x2

e|-7-|          e|-12-|
B|-9-| x2 Bars  B|-12-|
G|-9-|          G|-13-|

Bridge:

I had no time to do it, but it's chords are Power Chords on th root of D string, ends 
with F# G# A Chords. I'll this later, if here's an edit function.

Pre-Chorus

e|-12-| Silently 8th notes

Solo:
I had no time to finish i correctly, but it's something like

e|-12-12-16-16-19-18-16-12-9-12-|
B|-12-12-17-17------------------|

e|---------------------------|
B|---------------------------|
G|---------------------------|
D|-8/9-9--8/9-9--9-----------|
A|-6/7-7--6/7-7--7-----------|
E|---------------------------|

Song ends with:
 [Gently]
D|-2-|
A|-2-|
E|-0-|
Tap to rate this tab
 
# A B C D E F G H I J K L M N O P Q R S T U V W X Y Z