Honor By August - Waking Up chords

Highlighted       Show chord diagrams
-------------------------------------------------------------------------------
			     Waking Up - Honor by August
-------------------------------------------------------------------------------

Tabbed by:Edward Crilley
Email: ecrilley@comcast.net

Tuning: Standard



   E                 Emaj7          Amaj              Ema7     

E--0--0--0--7--0--0--0--0--0--7--0--0--0--0--7--0--0--0--0--0--7--0--0----------------------|
B--0--0--0--0--0--0--0--0--0--0--0--0--0--0--0--0--0--0--0--0--0--0--0----------------------|
G--9--9--9--9--9--9--8--8--8--8--8--6--6--6--6--6--6--4--4--4--4--4--4----------------------|
D--9--9--9--9--9--9--9--9--9--9--9--7--7--7--7--7--7--6--6--6--6--6--6----------------------|
A-------------------------------------------------------------------------------------------|
E-------------------------------------------------------------------------------------------|

Verse 1:

E   Emaj7      Amaj         Emaj
I'm waking up with a new sensation
I think that I could get used to it
Laying around soaking up the sounds of the radio
Drowning out the television

Pre-Chorus:

C#                     Eb
There's nothing to see here
             E               F#                E
No reason to be here waiting on the telephone line
A        B          E
Nobody's calling me anyway
             A                   B                    C#    B
Anywhere you go it's like you're gone but when you're here

Chorus:

    A             B                    
You might as well believe in something
E        B           A
In the strangest of places
B
I finally found you
I finally found you

Verse 2:

E                 Emaj7      
Too many cars not going far 
 Amaj             Emaj
Enough to get you to a bar
Where you can drink and think about
That girl that gave you the perfect scar
Oh you know there's a story there
Somewhere underneath her hair
That she twirled on her finger
Drink and let this moment linger

Pre-Chorus:

C#                     Eb
There's nothing to see here
             E               F#                E
No reason to be here waiting on the telephone line
A        B          E
Nobody's calling me anyway
             A                   B                    C#    B
Anywhere you go it's like you're gone but when you're here

Chorus:

    A             B                    
You might as well believe in something
E        B           A
In the strangest of places
B
I finally found you
I finally found you

Bridge:

C#m             E
Blame it all on satellites
C#m                   B      
Causing too much interference
F#m           A                   B
No one hangs around when they get lonely, yeah
    E (High)         A                B                  A
But me, I think I'll stick around and watch them tear it down
   C#m        B                 E            B           E
Maybe climb a mountain so I can get a better view of the world

Chorus

In the strangest of places (x2)
I finally found you (x2)

(I'm waking up with a new sensation) (x2)


************************************

| /   slide up
| \   slide down
| h   hammer-on
| p   pull-off
| ~   vibrato
| +   harmonic
| x   Mute note
| b   Bend
| pb  Pre-bend
| br  Bend release
| pbr Pre-bend release
| brb Bend release bend

************************************

Tap to rate this tab
 
# A B C D E F G H I J K L M N O P Q R S T U V W X Y Z