Song name
# A B C D E F G H I J K L M N O P Q R S T U V W X Y Z

Honor Society - Over You tab

Standard Tuning:
intro:
e |------------------------------------------|
B |------------------------------------------|
G |------------------------------------------|
D |----------2-2------4-4-----4-4------------|
A |--5-5-----0-0--454-2-2-0-0-2-2------------|
E |--3-3-323----------------------0-2--------|
Verse:
e |------------------------------------------|
B |------------------------------------------|
G |------------------------------------------|
D |-4------6-7----2-2-22----------67----2-2--|
A |-2-4-5--4-5-57-0-0-00-----5-5-045-57-0-0--|
E |---2-3----------------0-2-3-3-------------|
Chorus:
e |------------------------------------------|
B |------------------------------------------|
G |------------------------------------------|
D |----------2-2------4-4-----4-4------------|
A |--5-5-----0-0--454-2-2-0-0-2-2------------|
E |023-3-323----------------------0-2--------|
Bridge:
e |------------------------------------------|
B |------------------------------------------|
G |------------------------------------------|
D |-------2~-4~-4~-2--------2--4-2-----------|
A |---5~--0~-1~-2~-0--5--2--0--2-0-5---------|
E |-023~--------------3--0---------3---------|
interlude:
e |------------------------------------------|
B |------------------------------------------|
G |------------------------------------------|
D |--44--22-------44---22--------------------|
A |--22--00--5~---22---00--2~----------------|
E |----------3~------------0~----------------|
Tap to rate this tab
 
# A B C D E F G H I J K L M N O P Q R S T U V W X Y Z