Song name
# A B C D E F G H I J K L M N O P Q R S T U V W X Y Z

Honor Society - Here Comes Trouble tab

-------------------------------------------------------------------------------
			     Here Comes Trouble - Honor Society
-------------------------------------------------------------------------------
Tabbed by: Morgan

Tuning: Each string one half step down, so Eb, Ab,Db, Gb, Bb, eb

Intro and Verse
e|-----------------------------------------------------------------------------|
B|-----------------------------------------------------------------------------|
G|-----------------------------------------------------------------------------|
D|-----------------------2-----0-----2-------------------------4---2---5-------|
A|-----------------------------------------------------------------------------|
E|-----0-----0-----0------------------------0-----0-----0----------------------|

e|-----------------------------------------------------------------------------|
B|-----------------------------------------------------------------------------|
G|-----------------------------------------------------------------------------|
D|-----------------------2-----0-----2-----------------0-----------------------|
A|---------------------------------------------0---2---------------------------|
E|-----0-----0-----0-----------------------3-----------------------------------|
(repeat 5 times)
Prechorus (She's the baddest girl I've ever seen...)
e|-----------------------------------------------------------------------------|
B|-----------------------------------------------------------------------------|
G|------5--------7--------9--------5-------7--------4--------5-----------------|
D|-----5--------7--------9--------5-------7--------4--------5------------------|
A|----3--------5--------7--------3-------5--------2--------3-------------------|
E|-----------------------------------------------------------------------------|

Chorus (Here comes trouble again...)
e|-----------------------------------------------------------------------------|
B|-----------------------------------------------------------------------------|
G|-----9-------5---------------------------------------------------------------|
D|----9--------5--------5--------9---------------------------------------------|
A|----7--------3--------5--------9---------------------------------------------|
E|----------------------3--------7---------------------------------------------|
(Repeat 3x)
(Repeat intro and verse 4x, prechorus 1x, chorus 3x)
Bridge (She's gaining on me, faster and faster)
e|------------------------------|
B|------------------------------|
G|------------------------------|
D|------------------------------|
A|----3-----2-------------------|
E|---------------3-----2-----0--| (repeat 4x)
(Repeat prechorus 1x, chorus 3x)

Ending - Intro
e|---------------------------------------------------------------------------|
B|---------------------------------------------------------------------------|
G|---------------------------------------------------------------------------|
D|--------------2---0---2-------------4---2------------------2---0---2-------|
A|-------------------------------------------5-------------------------------|
E|---0---0---0-------------0---0---0-------------0---0---0-------------------|

e|-----------------------------------------------------------------------------|
B|-----------------------------------------------------------------------------|
G|-----------------------------------------------------------------------------|
D|------------0---2----------0--2----------------------------------------------|
A|-----0---2-----------0--2------------2---2---2-------------------------------|
E|--3---------------3------------------0---0---0-------------------------------|

Thanks! This is my first tab, sorry if everything's not correct, but I think it's 100%
Tap to rate this tab
 
# A B C D E F G H I J K L M N O P Q R S T U V W X Y Z