Song name
# A B C D E F G H I J K L M N O P Q R S T U V W X Y Z

Honor Society - Sing For You tab

comment and rate!!


INTRO:

E|-----------------------|
B|-----------------------|
G|--------4--4--4--------|
D|-----4--4--4--4--------|
A|-----4--2--1--2--------|
E|-----2-----------------|

VERSE PT 1: 2X

E|-------------------------|
B|-------------------------|
G|-------4-----------------|
D|----4--4-----------------|
A|----4--2-----------------|
E|----2--------------------|

VERSE PT 2: 2X

E|---------------------------------------------|
B|---------------------------------------------|
G|----4--4-----6-------------------------------|
D|----4--4--4--6-------------------------------|
A|----1--2--4--4-------------------------------|
E|----------2----------------------------------|

PRE CHORUS: 2X

E|-------------------------|
B|-------------------------|
G|-------6--4--------------|
D|----4--6--4--------------|
A|----4--4--2--------------|
E|----2--------------------|

CHORUS IS THE SAME THING AS THE INTRO

BACK TO INTRO 2X

BACK TO VERSE PT 1 2X

BACK TO PRE CHORUS

BACK TO CHORUS

SOLO:

E|-----------------------------------------------------------16B--14---16B-|
B|-----14B--14BR--12P11P12P11--------------------14B--14BR-----------16----|
G|----------------------------11-------------------------------------------|
D|-------------------------------13--11---13--11---------------------------|
A|--------------------------------------13---------------------------------|
E|-------------------------------------------------------------------------|

BACK TO CHORUS

AND I DONT KNOW THE OUTRO :(




Tap to rate this tab
 
# A B C D E F G H I J K L M N O P Q R S T U V W X Y Z