Song name
# A B C D E F G H I J K L M N O P Q R S T U V W X Y Z

Hoobastank - Lucky tab

Help us improve GuitareTab! Take a short survey!
Band- Hoobastank
Song- lucky

Tuning: Drop D - D A D G B e

Intro/Verse: 0:00
e|-------------------------------------------------------------------|
B|------------------7-7-7-6-6-6-6-6----------------------------------|
G|--6-6-6-6-6-6-6-6-6-6-6-6-6-6-6-6-6-6-6-6-6-6-6-6-9-9-9-8-8-8-8-8--|
D|--4-4-4-4-4-4-4-4-4-4-4-4-4-4-4-4-4-4-4-4-4-4-4-4-7-7-7-6-6-6-6-6--|
A|--4-4-4-4-4-4-4-4-4-4-4-4-4-4-4-4-4-4-4-4-4-4-4-4-7-7-7-6-6-6-6-6--|
D|--4-4-4-4-4-4-4-4-4-4-4-4-4-4-4-4-4-4-4-4-4-4-4-4-7-7-7-6-6-6-6-6--|

Pre-Chorus: 0:29
e|-------------------------------------------------------------------|
B|-------------------------------------------------------------------|
G|------------------4---4---4---4------------------------------------|
D|--6---6---6---6---4---4---4---4------------------------------------|
A|--6---6---6---6---2---2---2---2------------------------------------|
D|--6---6---6---6----------------------------------------------------|

Chorus: 0:32
e|-------------------------------------------------------------------|
B|-------------------------------------------------------------------|
G|------------------4-4-4-4-4-4-4-4-2-2-2-2-2-2-2-2------------------|
D|------------------2-2-2-2-2-2-2-2-2-2-2-2-2-2-2-2------------------|
A|--0-0-0-0-0-0-0-0-2-2-2-2-2-2-2-2-0-0-0-0-0-0-0-0-2-2-2-2-2-2-2-2--|
D|--0-0-0-0-0-0-0-0---------------------------------2-2-2-2-2-2-2-2--|

Bridge: 1:39                                      1:44
e|---------------------------------|---------------------------------|
B|---------------------------------|---------------------------------|
G|--6---------------------4-4-4-4--|---------------------------------|
D|--6-------------6-6-6-6-4-4-4-4--|--7---7---7---7---6---6---6---6--|
A|--4----2-2--2---6-6-6-6-2-2-2-2--|--7---7---7---7---6---6---6---6--|
D|-------2-2--2---6-6-6-6----------|--7---7---7---7---6---6---6---6--|
Related for Lucky tab