Song name
# A B C D E F G H I J K L M N O P Q R S T U V W X Y Z

Horslips - Dearg Doom tab

Alright well this is my first tab, and I saw there were horrible tabs of this song. I 
everything except the solo near middle and very end, still working on that, but basically 
it. Alright so:

In standard tuning:
|P= Pull-off, H= Hammer-on|
Part 1 (Riff, verse):
------------------------------------------------------|e
------------------------------------------------------|B
------------------------------------------------------|G
----0-3-2-5-0-3-3p2--------3-2-5-0-3-3p2--------------|D
--------------------5p3-0----------------5p3--0-------|A
------------------------------------------------------|E

------------------------------------------------------|e
------------------------------------------------------|B
------------------------------------------------------|G
------3-2-5-0-3-3p2-------03-2-5-0-3-3p2--------------|D
--------------------5p3-0----------------5p3--0-------|A
------------------------------------------------------|E

   That riff over and over again until 30 seconds and it goes:

 At 30 seconds (part 2, quick solo):
---------------------------------------------------------------|e
----------6---------------6------------------------------------|B
----7-5h7---7p5-----7p5h7--7p5-----------------------G     X 2-|
----------------7--------------7-------------------------------|D
---------------------------------------------------------------|A
---------------------------------------------------------------|E

Then the normal first riff again until 38 seconds:

38 Seconds (Part 3, Chorus):
---------------------------------------------------------------|e
---------------------------------------------------------------|B
----------------7-7p5--------------7-7p5-------------G     X 2-|
----5-5-7p3-7p5------7p5-5-7p3-7p5------7p5--------------------|D
---------------------------------------------------------------|A
---------------------------------------------------------------|E

Then at 1:30 repeat part 2:

At 1:30
---------------------------------------------------------------|e
----------6---------------6------------------------------------|B
----7-5h7---7p5-----7p5h7--7p5-----------------------G     X 2-|
----------------7--------------7-------------------------------|D
---------------------------------------------------------------|A
---------------------------------------------------------------|E

And basically thats it for everything except the Solo's that I'm still working on. You 
tell by timing and the seconds the rest of when the parts appear. Well, good luck, hope 
tab is better then those others.
Tap to rate this tab
# A B C D E F G H I J K L M N O P Q R S T U V W X Y Z