Song name
# A B C D E F G H I J K L M N O P Q R S T U V W X Y Z

Howard Shore - All Shall Fade Pippins Song tab

Tabbed by: Kadinsky
===================

Alright, so this is definitely my most favourite song of all time.
So enjoy!

At the start of every bar, you could play E and A string (that the thickest and the 
ones) open in unison to create the bass; keep doing that until the last bar, where you play 
the E string open when you play 7 on the third string.

The tuning is : D#
                A#
                F#
                C#
                G#
                C#

(I know it's kinda strange. Just think of it as a drop D tuned a half a step down.)

|==================================================================|
| NOTE: The lyrics and timing doesn't quite fit right; you'll have |
|        to listen to the song to get it right.                    |
|==================================================================|

           Home is   be- hind            The wo-  o-   rld ahead
      Q    E    Q    S   S    Q       E  E   E    Q    E   Q
D#||-------------------------------|-----------------------------|
A#||-------------------------------|-----------------------------|
F#||-------------------------------|-----------------------------|
C#||------------7----7---7----L----|-----7---9---10----9---7-----|
G#||-------5-----------------------|-----------------------------|
C#||-------------------------------|-----------------------------|


       And there are ma-            ny paths  to   trea- d-
  Q    E   Q     S   S   Q       E  E  E      Q    E     Q
------------------------------|-------------------------------|
------------------------------|-------------------------------|
------------------------------|-------------------------------|
-----------7-----7---7---L----|-----7--9-----10----9-----7----|
-------5----------------------|-------------------------------|
------------------------------|-------------------------------|


       Through-                    To the  edge of night
                sha- dow
  Q    E        S    H        S    E  E    Q    E  E     Q
--------------------------------|-----------------------------|
--------------------------------|-----------------------------|
-------7--------7---------------|--7--9---10----9--7-----L----|
---------------------7--------L-|-----------------------------|
--------------------------------|-----------------------------|
--------------------------------|-----------------------------|


       Until the  sta- rs            are   all  al- ight
  Q    E     Q    S    S  Q       E  Q     Q    E   Q
-------------------------------|-------------------------|
-------------------------------|-------------------------|
-------------------------------|-------------------------|
-------------7----7----7--L----|-----7----10----9---7----|
-------5-----------------------|-------------------------|
-------------------------------|-------------------------|


       Mist and                Clo- o-  ud   and shade
            sha- dow
  Q    E    S    H        S    E    E   Q    E   E     Q
----------------------------|-------------------------------|
----------------------------|-------------------------------|
-------7----7---------------|--7----9--10----9---7-----L----|
-----------------7--------L-|-------------------------------|
----------------------------|-------------------------------|
----------------------------|-------------------------------|


       All shall fa- de-         A- a-  a-    ll    sha-a-  a-a-
  Q    E   Q     S   S   Q       E  E   Q     Q     E   T   T S
------------------------------|----------------------------------|
------------------------------|----------------------------------|
------------------------------|----------------------------------|
-----------7-----7---7---L----|--7--9--10----12----10---9--10-9--|
-------5----------------------|----------------------------------|
------------------------------|----------------------------------|


        ll   fade
  Q     Q    H
----------------------|-----------||
----------------------|-----------||
----------------------|-----------||
--L----------7--------|-----------||
-------10-------------|-----------||
----------------------|-----------||


Duration Legend
---------------
W - whole
H - half
Q - quarter
E - 8th
S - 16th
T - 32nd
X - 64th
. - note dotted
|-n-|  - n-tuplets
Tap to rate this tab
 
# A B C D E F G H I J K L M N O P Q R S T U V W X Y Z