Song name
# A B C D E F G H I J K L M N O P Q R S T U V W X Y Z

Howard Shore - Misty Mountains tab

E--------------------------------------------------------------------------|
B-----------1-----------------------------1---3---1--------------1---------|
G-----0-2-3---3-2---0------2-2-3-2---0--2---2---2---0-2------2-3---3-2---0-|
D-0-3-------------3----0-3---------3---------------------0-3-----------3---|
A--------------------------------------------------------------------------|
E--------------------------------------------------------------------------|

E--------------------------------------------------------------------------|
B-------------1----------------------1------------1---3---1----------------|
G-------0-0-3---3-2---0------0-2-2-3---3-2-0-2--2---2---2---0-2--------0-0-|
D-0-0-3-------------3----0-0-------------------------------------0-0-3-----|
A--------------------------------------------------------------------------|
E--------------------------------------------------------------------------|


E-------|
B-------|
G2---0--|
D--3----|
A-------|
E-------|
Tap to rate this tab
# A B C D E F G H I J K L M N O P Q R S T U V W X Y Z