Song name
# A B C D E F G H I J K L M N O P Q R S T U V W X Y Z

Howard Shore - Lord Of The Rings Concerning Hobbits tab

-------------------------------------------------------------------------------
		     LotR (comp. Howard Shore) - 'Concerning Hobbits'
-------------------------------------------------------------------------------
Tabbed by: Jarv
Email: jsjarv@live.co.uk

Tuning: standard
Key of C


	C				F	C	G  C

e|-0--------------------------------1------------------3---------------------|
B|-1--------------------------------1--1-0------1------3--1------------------|
G|-0---------0---------------0------2-------0---0------0--0-------0----------|
D|-2----0-2-----2--0-------2--------3-----------2--3p2-0--2---0-2---2-0------|
A|-3-3----------------3-------------3-----------3------2--3-3------------3---|
E|----------------------------------1------------------3---------------------|

	F	   C	   G

e|-------1-----------------3-------------------------------------------------|
B|-------1--1-0----1-------3-------------------------------------------------|
G|-------2------0--0-------0-------------------------------------------------|
D|----0--3---------2--3p2--0-------------------------------------------------|
A|--2----3---------3-------2-------------------------------------------------|
E|-------1-----------------3-------------------------------------------------|
Tap to rate this tab
# A B C D E F G H I J K L M N O P Q R S T U V W X Y Z