Song name
# A B C D E F G H I J K L M N O P Q R S T U V W X Y Z

Howard Shore - Lord Of The Rings Concerning Hobbits tab

Hi everyone! I couldn't find any complete tabs of "Concerning Hobbits" on the 
internet, so here is one! :) This is the whole song note by note! :)
Try playing this along with the actual song, which is played on flute. 

Note: You dont have to play all the hammer-ons, pull-offs and slides, you can just 
pick all notes if you want to. :)
Tabbed by: SamThaMan
E|-5-------5---------------------------------------------------------------|
A|---7---7---7-------------------------------------------------------------|
D|-----7-------7--7h9-------9-7----------------------9--7h9-------9-7------|
G|--------------------6-9-6-----6-9-11-14-13-9-6-7-6--------6-9-6----------|
B|-------------------------------------------------------------------------|
e|-------------------------------------------------------------------------|

E|-------------------------------------------------------------------------|
A|-----------------------------------------------4-7-2---------------------|
D|------------7s9--7h9---------9-7-9-2-4-6-6-7-4---------------------------|
G|-6-9-11-9-6---------6--6-6-9---------------------------------------------|
B|-------------------------------------------------------------------------|
e|-------------------------------------------------------------------------|

E|-------------------------------------------------------------------------|
A|-7--------------------------4-----------4-5-4-2--0h2-4---4h6-7-2---------|
D|---6-7h9---------9-7-9-6--4---4h6-7-6-4----------------------------------|
G|---------6-6-9-6---------------------------------------------------------|
B|-------------------------------------------------------------------------|
e|-------------------------------------------------------------------------|

E|-------------------------------------------------------------------------|
A|-------------------------------------------------------------------------|
D|-7h9------------------------11-11-11-11--7h9-------------7---------------|
G|-----6-6-6-4h6-8-8-8-8-6h8--10-10-10-10------6-9-6-4h6p4-----------------|
B|-------------------------------------------------------------------------|
e|-------------------------------------------------------------------------|

E|-------------------------------------------------------------------------|
A|-------------------------------------------------------------------------|
D|-0----------------------9--7h9----------------0--------------7s9---6s7---|
G|---6-9-11-14-13-9-6-7-6--------6-9-6s4-2-4-2----6-9-9s11-9-6-------------|
B|-------------------------------------------------------------------------|
e|-------------------------------------------------------------------------|
Tap to rate this tab
# A B C D E F G H I J K L M N O P Q R S T U V W X Y Z