Song name
# A B C D E F G H I J K L M N O P Q R S T U V W X Y Z

Howard Shore - Far Over The Misty Mountains Cold tab

---------------------------------------------------------------|
---------------------------------------------------------------|
-----------9-11-9----------------------------------------------|
------9-12--------12-11-9--------------------------------------|
-9-12----------------------------------------------------------|
---------------------------------------------------------------|

----------------------------------------------------------------|
----------------------------------------------------------------|
--------------9-------------------------------------------------|
---9-11-11-12---12-11-9-----------------------------------------|
-9--------------------------------------------------------------|
----------------------------------------------------------------|

---------------------------------------------------------------|
---------------------------------------------------------------|
---------------9-----------------------------------------------|
--------9-9-12---12-11-7-9-------------------------------------|
-9-9-12--------------------------------------------------------|
---------------------------------------------------------------|

-------------------------------------------------------------|
-------------------------------------------------------------|
----------------9--------------------------------------------|
-----9-11-11-12---12-11-9-11---------------------------------|
-9-9---------------------------------------------------------|
-------------------------------------------------------------|

---------------------------------------------------------------|
---------------------------------------------------------------|
----9----11----9-----------------------------------------------|
-12---11----12---9-11------------------------------------------|
---------------------------------------------------------------|
---------------------------------------------------------------|

-----------------------------------------------------------------|
-----------------------------------------------------------------|
-----------------------------------------------------------------|
------11-12-12-11----9-9-----------------------------------------|
-9-12-------------12---------------------------------------------|
-----------------------------------------------------------------|
Tap to rate this tab
 
# A B C D E F G H I J K L M N O P Q R S T U V W X Y Z