Song name
# A B C D E F G H I J K L M N O P Q R S T U V W X Y Z

Howlin Wolf - Killing Floor tab

Title: Killing Floor
Artist: Howlin' Wolf

Intro
    E                        D                        A7
E|--12-12-12-12-12-12-12-12--10-10-10-10-10-10-10-10--5-5-5-5-5-5-5-5---------|
B|--12-12-12-12-12-12-12-12--13-13-13-13-13-13-13-13--8-8-8-8-8-8-8-8---------|
G|--13-13-13-13-13-13-13-13--11-11-11-11-11-11-11-11--6-6-6-6-6-6-6-6---------|
D|----------------------------------------------------7-7-7-7-7-7-7-7---------|
A|----------------------------------------------------------------------------|
E|----------------------------------------------------------------------------|
    E9
E|--7-7-7-7-7-7-7-|
B|--7-7-7-7-7-7-7-|
G|--7-7-7-7-7-7-7-|
D|--6-6-6-6-6-6-6-|
A|--7-7-7-7-7-7-7-|
E|----------------|
    A                                     D                          
E|--9-9---9--7--5--5---9-9---9--7--5--5---14-14---14--12--10--10--------------|
B|----------------------------------------------------------------------------|
G|--9-9---9--7--6--6---9-9---9--7--6--6---14-14---14--12--11--11--------------|
D|----------------------------------------------------------------------------|
A|----------------------------------------------------------------------------|
E|----------------------------------------------------------------------------|
    A                  E9               D9               A7
E|--9-9---9--7--5--5---7-7-7-7-7-7-7-7--5-5-5-5-5-5-5-5--5-5-5-5-5-5-5-5------|
B|---------------------7-7-7-7-7-7-7-7--5-5-5-5-5-5-5-5--5-5-5-5-5-5-5-5------|
G|--9-9---9--7--6--6---7-7-7-7-7-7-7-7--5-5-5-5-5-5-5-5--6-6-6-6-6-6-6-6------|
D|---------------------6-6-6-6-6-6-6-6--4-4-4-4-4-4-4-4--5-5-5-5-5-5-5-5------|
A|---------------------7-7-7-7-7-7-7-7--5-5-5-5-5-5-5-5--7-7-7-7-7-7-7-7------|
E|-------------------------------------------------------5-5-5-5-5-5-5-5------|
    E9
E|--7-7-7-7-7-7-7-7--|
B|--7-7-7-7-7-7-7-7--|
G|--7-7-7-7-7-7-7-7--|
D|--6-6-6-6-6-6-6-6--|
A|--7-7-7-7-7-7-7-7--|
E|-------------------|
Tap to rate this tab
 
# A B C D E F G H I J K L M N O P Q R S T U V W X Y Z