Song name
# A B C D E F G H I J K L M N O P Q R S T U V W X Y Z

Howlin Wolf - Smokestack Lightnin tab

-------------------------------------------------------------------------------
			     smokestack lightnin - howlin wolf
-------------------------------------------------------------------------------
Tabbed by: fopp
Email: bryce_1591@yahoo.com


Tuning:standard

e|---0--3-----------------------0--3-----------------------------------------
B|---------------3-----------------------------------------------------------
G|------------/4---4---2bp---------------------------------------------------
D|-------------------------2-2-----------------------------------------------
A|---------------------------------------------------------------------------
E|---0--0-----------------------0--0-----------------------------------------
i think thats the only thing that plays throght the whole song, im not sure i havent heard in months.

Tap to rate this tab
# A B C D E F G H I J K L M N O P Q R S T U V W X Y Z