Guitaretab - guitar tabs
Song name
# A B C D E F G H I J K L M N O P Q R S T U V W X Y Z

Huey Lewis And The News - Power Of Love tab

Artist: Huey Lewis And The News
Song: The Power Of Love

Tabbed by JackChappers

Any comments appreciated.


E|---13b15---13b15-13-11--------------|
B|-------------------------13\--------|
G|------------------------------3s5~--|
D|------------------------------------|
A|------------------------------------|
E|------------------------------------|

   
E|-----------------------------------|
B|-----------------------------------|
G|-----------------------------------|
D|--8h10--8--------------------------|
A|----------10-9-8\6-6-88b10r8p6----|
E|--------------------------------8--|


E|----------------------------------------------|
B|----------------------------------------------|
G|-------------------8-10-10b12-10b12r10p8-----|
D|---------------8-10-----------------------10--|
A|--------6--8-10-------------------------------|
E|--(6)-8---------------------------------------|


E|-------------------8-------------------------------------------------------------------------------|
B|-----------------8---11p8----8---------------------------------------------------------------------|
G|--------8-10b12-----------10----10b12--10-8-10-8------8--------------------------------8-10b12-10--|
D|--8h10------------------------------------------10-8---10-8----10-8--------------8-10--------------|
A|-------------------------------------------------------------10------10-8--8-9-10------------------|
E|---------------------------------------------------------------------------------------------------|

[ Tab from: http://www.guitaretab.com/h/huey-lewis-and-the-news/140734.html ]
E|--------------8-8--------8-8-------8-8-----8--8--8--8--------8--------|
B|------------8-8-8--------8-8-------8-8----10--8-10-10b12r10--8-8-(8)--|
G|-------8h10--------10b12-----10b12-----------------------------10-----|
D|----------------------------------------------------------------------|
A|----------------------------------------------------------------------|
E|----------------------------------------------------------------------|


E|-----------8-8-------8-8-------8-8-------8-8--|
B|-----------8-8-------8-8-------8-8-------8-8--|
G|-----10b12-----10b12-----10b12-----10b12------|
D|----------------------------------------------|
A|----------------------------------------------|
E|----------------------------------------------|


E|---------------------------------|
B|--10-8-10b12r10------------------|
G|--10-8-10b12r10-8----------------|
D|------------------10-8----8-10\--|
A|-----------------------10--------|
E|---------------------------------|

***********************************************
               /   =   Slide up
               \   =   Slide down
               ~   =   Let ring
              ()   =   Natural harmonic
               p   =   Pinched harmonic
               b   =   Bend
               r   =   Release bend
              br   =   Bend and Release
              bh   =   Bend and Hold
               p   =   Pull off
               h   =   Hammer on
               t   =   Tremolo
               x   =   Dead note
***********************************************

Related for Power Of Love tab