Song name
# A B C D E F G H I J K L M N O P Q R S T U V W X Y Z

Huey Lewis And The News - Stuck With You tab

-------------------------------------------------------------------------------
                           Stuck With You - Huey Lewis and the News
-------------------------------------------------------------------------------

Tuning: Regular E

                                  Intro
  
e|---------------------------------------------------------------------------|
B|--5-5-5-3-5-----5-5-5-3-5-----6-6-6-5-6-----6-6-6-5-3----------------------| x2
G|---------------------------------------------------------------------------|
D|---------------------------------------------------------------------------|
A|---------------------------------------------------------------------------|
E|---------------------------------------------------------------------------|

                                Verse 
e|---------------------------------------------------------------------------|
B|--5--------5--6------------6-5-3-------------------------------------------| x3
G|---------------------------------------------------------------------------|
D|---------------------------------------------------------------------------|
A|---------------------------------------------------------------------------|
E|---------------------------------------------------------------------------|
                                      
                                Bridge

e|---------------------------------------------------------------------------|
B|-----5-----3-----1------5-3----------5--3-3-3-------8----------------------|
G|----------------------------5-2--------------------------------------------|
D|---------------------------------------------------------------------------|
A|---------------------------------------------------------------------------|
E|---------------------------------------------------------------------------|

                                 Chorus

e|---------------------------------------------------------------------------|
B|--7-7-7-5-7-----7-7-7-5-7-----8-8-8-7-8-----8-8-8-7-8----------------------| x3
G|---------------------------------------------------------------------------|
D|---------------------------------------------------------------------------|
A|---------------------------------------------------------------------------|
E|---------------------------------------------------------------------------|
                           ^Repeat for 2nd Verse^

                       Solo (Actually a keyboard solo)

e|---------------------------------------------------------------------------|
B|--5-5-5-3-5-----5-5-5-3-5-----6-6-6-5-6-----6-6-6-5-6----------------------| x2
G|---------------------------------------------------------------------------|
D|---------------------------------------------------------------------------|
A|---------------------------------------------------------------------------|
E|---------------------------------------------------------------------------|

Should come out like this:
Intro
Verse
Bridge
Chorus
Verse
Bridge
Chorus
Solo
Bridge
Chorus
Continue to repeat chorus riff (7,7,7,5,7,7,7,7,5,7,8,8,8,7,8,8,8,8,7,8) till end.

Nothing fancy, just a fun song to play! Have fun!
Tap to rate this tab
# A B C D E F G H I J K L M N O P Q R S T U V W X Y Z