Guitaretab - guitar tabs
Song name
# A B C D E F G H I J K L M N O P Q R S T U V W X Y Z

Huey Lewis And The News - Heart And Soul tab

-------------------------------------------------------------------------------
		Heart And Soul Tab by Huey Lewis And The News
-------------------------------------------------------------------------------

Tabbed by: Stewage


This is the part with the hand claps before the guitar solo.

   PM..................                 PM...............
E|------------------------------------|---------------------------------|
B|-----------3--0--------/5--4--3~~~--|-----------3--0-----/5--4--3~~~--|
G|--0--4--0--------0--2---------------|--0--4--0--------2---------------|
D|------------------------------------|---------------------------------|
A|------------------------------------|---------------------------------|
E|------------------------------------|---------------------------------|
[ Tab from: http://www.guitaretab.com/h/huey-lewis-and-the-news/154927.html ]
   PM..................                 PM......
E|-----------3------------------------|-----------10--7---------------------|
B|--------------3--0-----/5--4--3~~~--|------------------8------------------|
G|--0--4--0-----------0---------------|--0--4--0------------7--/9--8--7\----|
D|------------------------------------|-------------------------------------|
A|------------------------------------|-------------------------------------|
E|------------------------------------|-------------------------------------|

 
 Guitar solo which is also the outro.

E|-----------------------------------|--------------------------------------|
B|-----------------------------------|--------------------------------------|
G|-----------------------------------|--------------------------------------|
D|--5--5--5--5~------------------5---|--5--5--5-----------------------------|
A|--------------8--7--5--------------|-----------8--8--8~~~-----------------|
E|-----------------------8--5h7------|--------------------------------------|


| /  slide up
| \  slide down
| h  hammer-on
| p  pull-off
| ~  vibrato
| +  harmonic
| x  Mute note
===============================================================================
Related for Heart And Soul tab
Heart And Soul chords by Huey Lewis And The News