Song name
# A B C D E F G H I J K L M N O P Q R S T U V W X Y Z

Huntingtons - Nobody Likes Me tab

Song: Nobody Likes Me
Artist: The Huntingtons
Album: Songs in the Key of You
Tabbed By: Caleb M. (caleb_m2000@hotmail.com)

Use power chords.

Chorus

G B->C B->C

Verse

D C G x3

D

Solo

E -----------------------------------------------------|
B -----------------------------------------------------|
G -----------------------------------------------------|
D -5-4-2-0-5-4-2-0-------------------------------------|
A -----------------2h3-3-3-3-3-2h3-3-3-3-3-------------|
E -----------------------------------------------------|

E -----------------------------------------------------|
B -------------------4h5-5-5-5-4h5-5-5-5---------------|
G -----------7-5-4-2-4h5-5-5-5-4h5-5-5-5---------------|
D -4-5-4-2-0-------------------------------------------|
A -----------------------------------------------------|
E -----------------------------------------------------|

With these chords:

G B->C B->C x2
Tap to rate this tab
# A B C D E F G H I J K L M N O P Q R S T U V W X Y Z