Guitaretab - guitar tabs
Song name
# A B C D E F G H I J K L M N O P Q R S T U V W X Y Z

Huntingtons - Ill Be Your Man tab

Song: I'll Be Your Man
Artist: The Huntingtons
Album: Songs in the Key of You
Tabbed By: Caleb M. (

Use power chords.

Intro x2

A F# D


A D x2

F# D e


A D e x3

A F# E

[ Tab from: ]
Chords for the verse are played behind the solo.
E ---------------8------------------|
B -----------------10-10-10-8-------|
G -8/9999-8/9999--------------9-9-9-|
D -6/7777-6/7777--------------------|
A ----------------------------------|
E ----------------------------------|

E ----------|
B ----------|
G -11-14-16-|
D -11-12-14-|
A ----------|
E ----------|
   8x 8x 16x
Related for Ill Be Your Man tab