Song name
# A B C D E F G H I J K L M N O P Q R S T U V W X Y Z

Hurriganes - Oh Yeah tab

-------------------------------------------------------------------------------
Hurriganes- Oh Yeah!
Album: Jailbird (1979)
-------------------------------------------------------------------------------

Intro (slide guitar)
A5
e|---------------------------------------------------------------------------|
B|---------------------14--14\12/14--14\12/14--------------------------------|
G|14-14\-12/-14\12/14--14--14\12/14--14\12/14--------------------------------|
D|14-14\-12/-14\12/14--14--14\12/14--14\12/14--------------------------------|
A|---------------------------------------------------------------------------|
E|---------------------------------------------------------------------------|

Verse
e|---------------------------------------------------------------------------|
B|---------------------------------------------------------------------------|
G|---------------------------------------------------------------------------|
D|---2-2-4-2-2-2-4-2-2-2-4-2-2-2-4-2-2-2-4-2-2-2-4-2-2-2-4-2-2-2-4-2---------|
A|---0-0-0-0-0-0-0-0-0-0-0-0-0-0-0-0-0-0-0-0-0-0-0-0-0-0-0-0-0-0-0-0---------|
E|---------------------------------------------------------------------------|

e|---------------------------------------------------------------------------|
B|---------------------------------------------------------------------------|
G|---------------------------------------------------------------------------|
D|---2-2-4-2-2-2-4-2-2-2-4-2-2-2-4-2-2-2-4-2-2-2-4-2-2-2-4-2-2-2-4-2---------|
A|---0-0-0-0-0-0-0-0-0-0-0-0-0-0-0-0-0-0-0-0-0-0-0-0-0-0-0-0-0-0-0-0---------|
E|---------------------------------------------------------------------------|
 |
e|---------------------------------------------------------------------------|
B|----------------------------------------------14\-/14-\--------------------|
G|----------------------------------------------14\-/14-\--------------------|
D|----------------------------------------------14\-/14-\--------------------|
A|---------------------------------------------------------------------------|
E|---------------------------------------------------------------------------|

Instrumental Break
A5
e|---------------------------------------------------------------------------|
B|-------17------------------------17----17----------------------------------|
G|---/18----18\--14-14\-9/-14--/18---/18----18\-14---------------------------|
D|---------------14-14\-9/-14-------------------14---------------------------|
A|---------------------------------------------------------------------------|
E|---------------------------------------------------------------------------|

Verse
e|---------------------------------------------------------------------------|
B|---------------------------------------------------------------------------|
G|---------------------------------------------------------------------------|
D|---2-2-4-2-2-2-4-2-2-2-4-2-2-2-4-2-2-2-4-2-2-2-4-2-2-2-4-2-2-2-4-2---------|
A|---0-0-0-0-0-0-0-0-0-0-0-0-0-0-0-0-0-0-0-0-0-0-0-0-0-0-0-0-0-0-0-0---------|
E|---------------------------------------------------------------------------|

e|---------------------------------------------------------------------------|
B|---------------------------------------------------------------------------|
G|---------------------------------------------------------------------------|
D|---2-2-4-2-2-2-4-2-2-2-4-2-2-2-4-2-2-2-4-2-2-2-4-2-2-2-4-2-2-2-4-2---------|
A|---0-0-0-0-0-0-0-0-0-0-0-0-0-0-0-0-0-0-0-0-0-0-0-0-0-0-0-0-0-0-0-0---------|
E|---------------------------------------------------------------------------|

Instrumental Break
A5
e|---------------------------------------------------------------------------|
B|-------17----------------------5--5----5---5-5-----------------------------|
G|---/18----18\--14-14\-9/-14----5--5----5---5-5-----------------------------|
D|---------------14-14\-9/-14----------7---7-----7---------------------------|
A|---------------------------------------------------------------------------|
E|---------------------------------------------------------------------------|

Chorus
D5			A5
e|---------------------------------------------------------------------------|
B|--/-7-----/7---5-\-2-------------------2-----------------------------------|
G|--/-7-----/7---6-\-2-------14\-9-/-14--2--14-\-9-/14-----------------------|
D|--/-7-----/7-------2-------14\-9-/-14--2--14-\-9-/14-----------------------|
A|---------------------------------------------------------------------------|
E|---------------------------------------------------------------------------|

E5	    D5
e|---------------------------------------------------------------------------|
B|---9----7------------------------------------------------------------------|
G|---9----7------------------------------------------------------------------|
D|---9----7------------------------------------------------------------------|
A|---------------------------------------------------------------------------|
E|---------------------------------------------------------------------------|

Verse
e|---------------------------------------------------------------------------|
B|---------------------------------------------------------------------------|
G|---------------------------------------------------------------------------|
D|---2-2-4-2-2-2-4-2-2-2-4-2-2-2-4-2-2-2-4-2-2-2-4-2-2-2-4-2-2-2-4-2---------|
A|---0-0-0-0-0-0-0-0-0-0-0-0-0-0-0-0-0-0-0-0-0-0-0-0-0-0-0-0-0-0-0-0---------|
E|---------------------------------------------------------------------------|

e|---------------------------------------------------------------------------|
B|---------------------------------------------------------------------------|
G|---------------------------------------------------------------------------|
D|---2-2-4-2-2-2-4-2-2-2-4-2-2-2-4-2-2-2-4-2-2-2-4-2-2-2-4-2-2-2-4-2---------|
A|---0-0-0-0-0-0-0-0-0-0-0-0-0-0-0-0-0-0-0-0-0-0-0-0-0-0-0-0-0-0-0-0---------|
E|---------------------------------------------------------------------------|

Instrumental Break
A5
e|---------------------------------------------------------------------------|
B|----14-\-/-14-------17-----------------------------------------------------|
G|----14-\-/-14---/18----/18--14------14\-9/-14------------------------------|
D|----14-\-/-14---------------14------14\-9/-14------------------------------|
A|---------------------------------------------------------------------------|
E|---------------------------------------------------------------------------|

Verse
e|---------------------------------------------------------------------------|
B|---------------------------------------------------------------------------|
G|---------------------------------------------------------------------------|
D|---2-2-4-2-2-2-4-2-2-2-4-2-2-2-4-2-2-2-4-2-2-2-4-2-2-2-4-2-2-2-4-2---------|
A|---0-0-0-0-0-0-0-0-0-0-0-0-0-0-0-0-0-0-0-0-0-0-0-0-0-0-0-0-0-0-0-0---------|
E|---------------------------------------------------------------------------|

e|---------------------------------------------------------------------------|
B|---------------------------------------------------------------------------|
G|---------------------------------------------------------------------------|
D|---2-2-4-2-2-2-4-2-2-2-4-2-2-2-4-2-2-2-4-2-2-2-4-2-2-2-4-2-2-2-4-2---------|
A|---0-0-0-0-0-0-0-0-0-0-0-0-0-0-0-0-0-0-0-0-0-0-0-0-0-0-0-0-0-0-0-0---------|
E|---------------------------------------------------------------------------|
 |
e|---------------------------------------------------------------------------|
B|----------------------------------------------14\--------------------------|
G|----------------------------------------------14\--------------------------|
D|----------------------------------------------14\--------------------------|
A|---------------------------------------------------------------------------|
E|---------------------------------------------------------------------------|

Instrumental Break
A5
e|---------------------------------------------------------------------------|
B|-----------17--------------5--5-----------------17-------------------------|
G|-------/18----/18--14------5--5-------------/18----/18--14---14\9/14-------|
D|-------------------14------------7---------------------------14\9/14-------|
A|---------------------------------------------------------------------------|
E|---------------------------------------------------------------------------|

Chorus
D5			A5
e|---------------------------------------------------------------------------|
B|--/-7-----/7-------2-------------------2-----------------------------------|
G|--/-7-----/7-------2-------14\-9-/-14--2--14-\-9-/14-----------------------|
D|--/-7-----/7-------2-------14\-9-/-14--2--14-\-9-/14-----------------------|
A|---------------------------------------------------------------------------|
E|---------------------------------------------------------------------------|

E5	    D5	   A5
e|---------------------------------------------------------------------------|
B|--/-9-----/7-------2-------------------2-----------------------2-/---------|
G|--/-9-----/7-------2-------14\-9-/-14--2--14-\-9-/14-----------2-/---------|
D|--/-9-----/7-------2-------14\-9-/-14--2--14-\-9-/14-----------2-/---------|
A|---------------------------------------------------------------------------|
E|---------------------------------------------------------------------------|

Solo
A5  |---------2x-------------|
e|---------------------------------17----17----17----17-19/20-20\------------|
B|-------17--------------------/19----19----19----19-------------------------|
G|---/18----18\--14-14\-9/-14------------------------------------------------|
D|---------------14-14\-9/-14------------------------------------------------|
A|---------------------------------------------------------------------------|
E|---------------------------------------------------------------------------|

e|---------------------------------19----19----19----19----19----------------|
B|-------17--------------------/21----21----21----21----21-------------------|
G|---/18----18\--14-14\-9/-14------------------------------------------------|
D|---------------14-14\-9/-14------------------------------------------------|
A|---------------------------------------------------------------------------|
E|---------------------------------------------------------------------------|

e|---------------------------------------------------------------------------|
B|-------17------17----------------------------------------------------------|
G|---/18----18---18-14\-9/-14------------------------------------------------|
D|------------------14\-9/-14------------------------------------------------|
A|---------------------------------------------------------------------------|
E|---------------------------------------------------------------------------|

Verse
e|---------------------------------------------------------------------------|
B|---------------------------------------------------------------------------|
G|---------------------------------------------------------------------------|
D|---2-2-4-2-2-2-4-2-2-2-4-2-2-2-4-2-2-2-4-2-2-2-4-2-2-2-4-2-2-2-4-2---------|
A|---0-0-0-0-0-0-0-0-0-0-0-0-0-0-0-0-0-0-0-0-0-0-0-0-0-0-0-0-0-0-0-0---------|
E|---------------------------------------------------------------------------|

e|---------------------------------------------------------------------------|
B|---------------------------------------------------------------------------|
G|---------------------------------------------------------------------------|
D|---2-2-4-2-2-2-4-2-2-2-4-2-2-2-4-2-2-2-4-2-2-2-4-2-2-2-4-2-2-2-4-2---------|
A|---0-0-0-0-0-0-0-0-0-0-0-0-0-0-0-0-0-0-0-0-0-0-0-0-0-0-0-0-0-0-0-0---------|
E|---------------------------------------------------------------------------|
 |
e|---------------------------------------------------------------------------|
B|----------------------------------------------14\--------------------------|
G|----------------------------------------------14\--------------------------|
D|----------------------------------------------14\--------------------------|
A|---------------------------------------------------------------------------|
E|---------------------------------------------------------------------------|

Instrumental Break
A5
e|---------------------------------------------------------------------------|
B|---5-5---5---5-5----------5-5----5----7--5---------------------------------|
G|---5-5---5---5-5--------2-5-5----5----7--5---------------------------------|
D|-------7---7-----7--2-4--------7----7-------7------------------------------|
A|---------------------------------------------------------------------------|
E|---------------------------------------------------------------------------|

Verse
e|---------------------------------------------------------------------------|
B|---------------------------------------------------------------------------|
G|---------------------------------------------------------------------------|
D|---2-2-4-2-2-2-4-2-2-2-4-2-2-2-4-2-2-2-4-2-2-2-4-2-2-2-4-2-2-2-4-2---------|
A|---0-0-0-0-0-0-0-0-0-0-0-0-0-0-0-0-0-0-0-0-0-0-0-0-0-0-0-0-0-0-0-0---------|
E|---------------------------------------------------------------------------|

e|---------------------------------------------------------------------------|
B|---------------------------------------------------------------------------|
G|---------------------------------------------------------------------------|
D|---2-2-4-2-2-2-4-2-2-2-4-2-2-2-4-2-2-2-4-2-2-2-4-2-2-2-4-2-2-2-4-2---------|
A|---0-0-0-0-0-0-0-0-0-0-0-0-0-0-0-0-0-0-0-0-0-0-0-0-0-0-0-0-0-0-0-0---------|
E|---------------------------------------------------------------------------|

Instrumental Break
A5
e|---------------------------------------------------------------------------|
B|-------17------------------------------------------------------------------|
G|---/18----18\--14-14\-9/-14--14\-9---14\-9--14\-9--14\-9----14-------------|
D|---------------14-14\-9/-14--14\-9---14\-9--14\-9--14\-9----14-------------|
A|---------------------------------------------------------------------------|
E|---------------------------------------------------------------------------|

Chorus
D5			A5
e|---------------------------------------------------------------------------|
B|--/-7-----/7-------2-------------------2-----------------------------------|
G|--/-7-----/7-------2-------14\-9-/-14--2--14-\-9-/14-----------------------|
D|--/-7-----/7-------2-------14\-9-/-14--2--14-\-9-/14-----------------------|
A|---------------------------------------------------------------------------|
E|---------------------------------------------------------------------------|

E5	    D5	   A5
e|---------------------------------------------------------------------------|
B|--/-9-----/7-------2-------------------2-----------------------------------|
G|--/-9-----/7-------2-------14\-9-/-14--2--14-\-9-/14-----------------------|
D|--/-9-----/7-------2-------14\-9-/-14--2--14-\-9-/14-----------------------|
A|---------------------------------------------------------------------------|
E|---------------------------------------------------------------------------|


e|------------------------------------------------------|
B|-2----------------2-------------------------14\-------|
G|-2----14\-9-/-14--2--14-\-9-/14-------------14\-------|
D|-2----14\-9-/-14--2--14-\-9-/14-------------14\-------|
A|------------------------------------------------------|
E|------------------------------------------------------|
Tap to rate this tab
# A B C D E F G H I J K L M N O P Q R S T U V W X Y Z