Song name
# A B C D E F G H I J K L M N O P Q R S T U V W X Y Z

Hyde - The Other Side tab

HYDE - THE OTHER SIDE TAB:

Intro:

e|----------------------|
B|----------------------|
G|--4--6-6--7-7--6--6---|
D|--4--6-6--6-6--6--6---|
A|--4--4-4--4-4--4--4---|
E|----------------------| (7x)

e|-------------------|
B|-------------------|
G|--4--6-6--7--6-6---|
D|--4--6-6--6--6-6---|
A|--4--4-4--4--4-4---|
E|-------------------|


Chorus 1:

e|-------------------------|
B|-------------------------|
G|-------------------------|
D|-5----4----/7----5---4---|
A|-5----4----/7----5---4---|
E|-3----2----/5----3---2---| (2x)


e|--------------------|
B|--------------------|
G|--------------------|
D|-5--4----/7--7--5---|
A|-5--4----/7--7--5---|
E|-3--2----/5--5--3---|


Verses:

e|----------------|
B|--5-4---6-5-6-5-|
G|------4---------|
D|----------------|
A|----------------|
E|----------------|


e|----5---4-------|
B|--3---4---4-----|
G|----------------|
D|----------------|
A|----------------|
E|----------------| (7x)

		    -or-


			     e|----5-4-6-5---|
			     B|--3-----------|
			     G|--------------|
			     D|--------------|
			     A|--------------|
			     E|--------------| (7x)


e|----5-4-7-7-7-7-7--|
B|--3----------------|
G|-------------------|
D|-------------------|
A|-------------------|
E|-------------------|


Chorus 2:

e|-------------------------|
B|-------------------------|
G|-------------------------|
D|-5----4----/7----5---4---|
A|-5----4----/7----5---4---|
E|-3----2----/5----3---2---| (3x)


-Repeat Intro-


-Repeat Verses-


Chorus 3 (This part isn't very good yet, sorry, I still have to find how it is done. But 
think Its better than don't have any tab, isn't it?):

e|-------------------------|
B|-------------------------|
G|-------------------------|
D|-5----4----/7----5---4---|
A|-5----4----/7----5---4---|
E|-3----2----/5----3---2---| (4x)

e|--?--|
B|--?--|
G|--?--|
D|--?--|
A|--?--|
E|--?--|


-Repeat Intro-


Tab by: WingsMark
Tap to rate this tab
# A B C D E F G H I J K L M N O P Q R S T U V W X Y Z