Hyde - Words Of Love tab

HYDE - Words of Love (Album: 666)

Tuning: Drop D

Intro and Verses (Palm Muted):
e|-----------------------------------------------|
B|-----------------------------------------------|
G|-----------------------------------------------|
D|-----------------------------------------------|
A|-4--2--4--2-4--2--4--2--4--2--4--2--4--2--5--0-|
D|-4--2--4--2-4--2--4--2--4--2--4--2--4--2--5--0-|

Pre-Chorus:               4x
e|-------------------------|-------------|
B|-------------------------|-------------|
G|-------------------------|-------------|
D|-------------------------|-------9-9-9-|
A|-11--11-11-11--9--11--12-|-12-12-7-7-7-|
D|-11--11-11-11--9--11--12-|-12-12-------|

Chorus:
e|---------------------------------------------------------------|
B|---------------------------------------------------------------|
G|---------------------------------------------------------------|
D|---------------------------------------------------5-5-7-7-5-5-|
A|-9--9-9-9-7-7-7-9--7--7-7-7-5-5-5-7--2--2-2-2-2-2--3-3-5-5-3-5-|
D|-9--9-9-9-7-7-7-9--7--7-7-7-5-5-5-7--2--2-2-2-2-2--------------|



Tab by: MARK
Tap to rate this tab
 
# A B C D E F G H I J K L M N O P Q R S T U V W X Y Z