Song name
# A B C D E F G H I J K L M N O P Q R S T U V W X Y Z

Idgits - Solo tab

Use distortion and the faster u play the better it sounds

                        .:*SOLO*:.


----------------------------------------------------|
----------------------------------------------------|
----------------------------------------------------|
----------------------------------------------------|
----------------------------------------------------|
9-11-9-11-10-12-10-12-11-13-11-13-12-14-12-14-13-15-|

----------------------------------------------------|
----------------------------------------------------|
----------------------------------------------------|
------------------------------------18-18/1---------|
------------------------------------18-18/1---------|
14-16-14-16-15-17-15-17-16-18-16-18-18-18/1-3-1-3-1-|

---------------------------------------------------|
---------------------------------------------------|
---------------------------------------------------|
------------------------------0--------------------|
------------------------------0--------------------|
1-3-1-3-1-3-3^^^^^^^^^^^^^^^^^3--------------------|
Tap to rate this tab
# A B C D E F G H I J K L M N O P Q R S T U V W X Y Z