Guitaretab - guitar tabs
Song name
# A B C D E F G H I J K L M N O P Q R S T U V W X Y Z

Immortal - One By One tab

Immortal - One by One - Sons of Northern Darkness                                  
by HS Abbadon  
                                                                         
 h: Hammer-on 
 \ :Slide up

This is an easy version of One by One. May not sound exacly right, but it works.

Intro:
|---------------------------------------------------|
|---------------------------------------------------|
|---------------------------------------------------|
|---------------------------------------------------|  Play fast!
|-777-555-777-555-777-555-777-888-------------------|
|-555-333-555-333-555-333-555-666-------------------|

[ Tab from: http://www.guitaretab.com/i/immortal/25622.html ]
Middle:
|---------------------------------|
|---------------------------------|            10           108
|---------------------------------|      It's: 10,  NOT 108 !
|-7---78---7-8-108-7-8--5---------|            8             8
|-7---78---7-8-108-7-8--5---------|
|-5---56---5-6-8-6-5-6---3--------|


Bridge:
|---------------------------------------------------------|
|---------------------------------------------------------|
|---------------------------------------------------------|
|----------------------------12\1111-777-10-9-5-----------|
|-777-777-777-777---10\--9--9-555--8-7-3------------------|
|---------------------------------------------------------|


Chorus:
|----------------------------------|
|----------------------------------|
|-7--------------------------------|
|-7------55555555555555------------|
|-5------33333333333333------------|
|----------------------------------|
         Tremble with fear...


Outro:
|------------------------------|
|------------------------------|
|------------------------------|
|-7-7-5h6h7---7-7-111----------|
|-5-5-------------5-5-333------|
|------------------------------|
Related for One By One tab
One By One chords by Immortal