Song name
# A B C D E F G H I J K L M N O P Q R S T U V W X Y Z

Immortal - Tyrants tab

band - immortal
song - tyrants
album - sons of northern darkness
tuning - (D,G,C,F,A,D,)

all music & lyrics by - abbath,horgh,demonaz


* = PALM MUTE
~ = LET NOTE RING OUT
/ = SLIDE
' = TREM PICK
p = PULL OFF
h = HAMMER ON

 THIS IS THE 100% CORRECT WAY TO PLAY TYRANTS IVE SEEN OTHER TABS FOR IT
 BUT THE CLEAN PART WAS WRONG,THIS IS THE WAY ABBATH PLAYS IT.KICK A**
 SONG PLZ RATE.


  INTRO/VERSE RIFF

D---------------------]-------------------]
A-----8'---8'---8'----]-----8'---8'---8'--]
F-----7'---7'---7'----]-----7'---7'---7'--]
C--2--5'---5'---5'----]--2--5'---5'---5'--]
G--2------------------]--2----------------]
D--0----0----0-----0--]--0----0----0------]
        *    *     *          *    *


D---------------------]-------------------------]
A----10'--10'--10'----]----10'--10'--10--11-10--]
F-----9'---9'---9'----]-----9'---9'---9--10--9--]
C--2--7'---7'---7'----]--2--7'---7'---7--8---7--]
G--2------------------]--2----------------------]
D--0----0----0-----0--]--0----0----0------------]
        *    *     *          *    *

D---------------------]-------------------]
A-----8'---8'---8'----]-----8'---8'---8'--]
F-----7'---7'---7'----]-----7'---7'---7'--]
C--2--5'---5'---5'----]--2--5'---5'---5'--]
G--2------------------]--2----------------]
D--0----0----0-----0--]--0----0----0------]
        *    *     *          *    *


D---------------------]--------------------------]
A----10'--10'--10'----]----10'--10'--10'---------]
F-----9'---9'---9'----]-----9'---9'---9'---------]
C--2--7'---7'---7'----]--2--7'---7'---7'---------]
G--2------------------]--2-----------------------]
D--0----0----0-----0--]--0----0----0-------------]
        *    *     *          *    *


  RIFF 2

D---------------------]------------------------]--------------------]
A---------------------]------------------------]--------------------]
F---------5~----------]---------5~-------------]---------5~---------]
C--2~-----3~----2-3'--]--2~-----3~----2-3'-2'--]--2~-----3~----2-3'-]
G--2~-----3~---2------]--2~-----3~---2---------]--2~-----3~---2-----]
D--0~--0------3-------]--0~--0------3----------]--0~--0------3------]
       *                     *                        *


D---------------------]
A---------------------]
F---------5~-------5--]
C--2~-----3~----2--3--]
G--2~-----3~---2------]
D--0~--0------3-------]


VERSE X2
RIFF 2 X1
VERSE X2


  RIFF 3 (CHORUS)

D--------------------0-----------------------------]
A---------------------0----------------------------]
F----------------4~--------------------------------]
C--5~------4-----2~--------5~----7~----2~----------]
G--3~-----4------2~--------3~----5~----2~----------]
D--3~----3-------0~--------3~----5~----0~--0-0000--]
                                           * ****


D--------------------0-----------------]
A---------------------0----------------]
F----------------4~--------------------]
C--5~------4-----2~--------5~----7~----]
G--3~-----4------2~--------3~----5~----]
D--3~----3-------0~--------3~----5~----]

  RIFF 4
                          1ST/3RD END       2ND/4TH END
D------0~------0~-------]----------------]----------------]
A------0~------0~-------]----------------]----------------]
F-----------------------]--0-------------]--0-------------]
C--2~------4~-----5~----]---4-2h4p2-0----]---4-2h4p2-0-4--]
G--2~------2~-----3~----]-------------3--]----------------]
D--0~------2~-----3~----]----------------]----------------]

  INTERLUDE (CLEAN 100%,THIS IS HOW ABBATH PLAYED IT LIVE)

D--------------------------]------------------------]
A-----------------0~-------]------------------------]
F------12---12-----12------]------12---12---12------]
C----14--14---14-----14----]----14--14---14---14----]
G--14------14---14---------]--14------14---14---14--]
D--------------------------]------------------------]

D--------------------------]------------------------]
A-----------------0~-------]------------------------]
F------11---11-----11------]------11---11---11------]
C----12--12---12-----12----]----12--12---12---12----]
G--12------12---12---------]--12------12---12---12--]
D--------------------------]------------------------]

D--------------------------]------------------------]
A-----------------0~-------]------------------------]
F------12---12-----12------]------12---12---12------]
C----14--14---14-----14----]----14--14---14---14----]
G--14------14---14---------]--14------14---14---14--]
D--------------------------]------------------------]


D--------------------------]--------------------------]
A-----------------0~-------]--------------------------]
F------11---11-----11------]------11---11----14-11----]
C----12--12---12-----12----]----12--12---12-------12--]
G--12------12---12---------]--12------12---12---------]
D--------------------------]--------------------------]


D--------------------------]------------------------]
A-----------------0~-------]------------------------]
F------12---12-----12------]------12---12---12------]
C----14--14---14-----14----]----14--14---14---12----]
G--14------14---14---------]--14------14---14---14--]
D--------------------------]------------------------]

D--------------------------]--------------------------]
A-----------------0~-------]--------------------------]
F------11---11-----11------]------11---11----14-11----]
C----12--12---12-----12----]----12--12---12-------12--]
G--12------12---12---------]--12------12---12---------]
D--------------------------]--------------------------]


D--------------------------]------------------------]
A-----------------0~-------]------------------------]
F------12---12-----12------]------12---12---12------]
C----14--14---14-----14----]----14--14---14---12----]
G--14------14---14---------]--14------14---14---14--]
D--------------------------]------------------------]

D--------------------------]--------------------------]
A-----------------0~-------]--------------------------]
F------11---11-----11------]------11---11----14-11----]
C----12--12---12-----12----]----12--12---12-------12--]
G--12------12---12---------]--12------12---12---------]
D--------------------------]--------------------------]

D--------------------------]--------------------------]
A-----------------0~-------]--------------------------]
F------12---12-----12------]------12---12----12-------]
C----14--14---14-----14----]----14--14---14----14-----]
G--15------15---15---------]--15------15---15----15---]
D--------------------------]--------------------------]

D--------------------------]------------------------]
A--------------------------]------------------------]
F------12---12-----12------]------11-----14~--11~---]
C----14--14---14-----14----]----12--12--------------]
G--14------14---14-----14--]--12------12------------]
D--------------------------]------------------------]

D--------------------------]--------------------------]
A-----------------0~-------]--------------------------]
F------12---12-----12------]------12---12----12-------]
C----14--14---14-----14----]----14--14---14----14-----]
G--15------15---15---------]--15------15---15----15---]
D--------------------------]--------------------------]

D--------------------------]------------------------]
A--------------------------]------------------------]
F------12---12-----12------]------11-----14~--11~---]
C----14--14---14-----14----]----12--12--------------]
G--14------14---14-----14--]--12------12------------]
D--------------------------]------------------------]

  yeah!!!!!!!!!!!!!!!!

   RIFF6
D-------------------]----------------------]--------------------]
A-------------------]----------------------]--------------------]
F-------------------]----------------------]--------------------]
C--9'---9'--7'--7'--]--9'---9'--7'--5'-7'--]--9'---9'--7'--7----]
G--7'--10'--9'--5'--]--7'--10'--9'---------]--7'--10'--9'--5'---]
D-------------------]----------------------]--------------------]


D----------------------]
A----------------------]
F----------------------]
C--9'---9'--7'--5'-4'--]
G--7'--10'--9----------]
D----------------------]


VERSE RIFF X4
RIFF 3 X3 -END.

 THERE IT IS,I KNOW ITS PRETTY LONG BUT BELIEVE ME WHEN YOU PLAY IT,IT
 SOUNDS AWSOME!!PLZ RATE..

 TABBED BY - IMMORTAL_STONE
Tap to rate this tab
# A B C D E F G H I J K L M N O P Q R S T U V W X Y Z