Song name
# A B C D E F G H I J K L M N O P Q R S T U V W X Y Z

Innuendo - Paranoia tab

Help us improve GuitareTab! Take a short survey!
                    This song is called paranoia
        it has normal e to e tuning and this is 100% correct because its one of our 
originals hope you like it.please leave a comment.

intro guitar 1
|------------------------------------------------------|
|------------------------------------------------------|repeat both 4 times
|------------------------------------------------------|one after another.
|------------4---4---6---6-----------------------------|
|---6---6--2---2---4---4------4---4--------------------|
|-4---4---------------------2---2----------------------|

intro 2 guitar 1
|---------------------------------------------------------|
|---------------------------------------------------------|
|---------------------------------------------------------|
|------------4---4---6---6---6---6------------------------|
|---6---6--2---2---4---4-------4--------------------------|
|-4---4---------------------------------------------------|

intro heavy bit.repeat 4 times
|-----------------------------------------------------------------|
|-----------------------------------------------------------------|
|-----4--6-6-------------4--6-6-----------------------------------|
|-6-6-4--6-6--4-4-4--6-6-4--6-6-----------------------------------|
|-6-6-2--4-4--4-4-4--6-6-2--4-4--6p4h6p4h6p4h6--------------------|
|-4-4---------2-2-2--4-4------------------------------------------|

intro 1 and 2 for the verse
prechorus repeat 4 times

|---------------------------2------------------------|
|-----------------------2h4---4p2--------------------|
|------------------4-4------------4------------------|
|-6-6--------------4-4-------------------------------|
|-6-6------4-------2-2-------------------------------|
|-4-4--4h6---6-4h6-----------------------------------|

chorus repeat 2 times

|------------------------------------------------------|
|------------------------------------------------------|
|------4-------6-6-6------4-----------6-6--------------|
|-6-6--4-4-4-4-6-6-6--6-6-4-4-4-4-4-4-6-6--------------|
|-6-6--2-4-4-4-4-4-4--6-6-2-4-4-4-4-4-4-4--------------|
|-4-4----2-2-2--------4-4---2-2-2-2-2------------------|

end of chorus just
|-----------------------------------|
|-----------------------------------|
|-----------------------------------|
|-4-4-4-4-4-4-----------------------|
|-4-4-4-4-4-4-----------------------|
|-2-2-2-2-2-2-----------------------|

verse 2 same as intro 1 and 2

prechorus

chorus

guitar solo

|-----------------------------------------------------------------|
|--------------------------------------------16-------------------|
|-18-(20)-18-18p16----------16----16--18-(20)---18-(20)-18--------|
|------------------18p16h18----18---------------------------------|
|-----------------------------------------------------------------|
|-----------------------------------------------------------------|

|---------------------------19-(21)-19-16-19s21-21-(23)-19--16----|
|-19p16h19-(21)-19p16---16----------------------------------------|
|---------------------18------------------------------------------|
|-----------------------------------------------------------------|
|-----------------------------------------------------------------|
|-----------------------------------------------------------------|

verse 3 same as intro
prechorus
chorus

guitar solo 2

|---------------------------------------------------------19-(21)-|
|-19-(21)-19p16--------16--------16---------16--------16----------|
|---------------18-(20)---18-(20)----18-(20)---18-(20)------------|
|-----------------------------------------------------------------|
|-----------------------------------------------------------------|
|-----------------------------------------------------------------|

|-16-------------------------------16---------------------------------|
|----19-(21)-19p16--------------------19-16-19-16--16-----------------|
|------------------18-(20)-18p16-----------------18--18-16-18-16-15---|
|------------------------------------------------------------------16-|
|---------------------------------------------------------------------|
|---------------------------------------------------------------------|

tabbed by stephen o'sullivan
lil_steve_93@hotmail.com
Related for Paranoia tab