Song name
# A B C D E F G H I J K L M N O P Q R S T U V W X Y Z

Interpol - Wrecking Ball tab

Help us improve GuitareTab! Take a short survey!
Artist: Interpol
Song: Wrecking Ball
Album: Our Love to Admire
Tuning: standard
Tabbed by: Jeremy Hill

Guitar 1:

Intro/verse
e|----------------------------------------------------|
B|----------------------------------------------------|
G|------------------4-4-4-4-2-2-2---------------------|
D|--4-4-4-4-4-4-4-4---------------4-0-(x16)-----------|
A|------------------------------------------0-(x16)---| x4
E|----------------------------------------------------|

e|----------------------------------------------------------|
B|----------------------------------------------------------|
G|------------------4-4-4-4-2-2-2---------------------------|
D|--4-4-4-4-4-4-4-4---------------4-0-(x16)-----------------|
A|------------------------------------------0-(x8)--4-(x8)--|
E|----------------------------------------------------------|

Chorus
e|----------------------------------------------------------------------------------|
B|----------------------------------------------------------------------------------|
G|--4~-----------------------2~------4~-------------2~------4~-------------2~-------|
D|--4~-------5~------4~------2~------4~------4~-----2~------4~------4~-----2~-------|
A|--2-(x16)--5~------4~------0-(x8)--2-(x8)--4~-----0-(x8)--2-(x8)--4~-----0-(x8)---|
E|-----------3-(x8)--2-(x8)------------------2-(x8)-----------------2-(x8)----------|


e|---------------------|
B|---------------------|
G|---------------------|
D|--4-4-4-4-7-7-7-7----|
A|--4-4-4-4-7-7-7-7----|
E|--2-2-2-2-5-5-5-5----|

Verse
e|----------------------------------------------------|
B|----------------------------------------------------|
G|------------------4-4-4-4-2-2-2---------------------|
D|--4-4-4-4-4-4-4-4---------------4-0-(x16)-----------|
A|------------------------------------------0-(x16)---| x4
E|----------------------------------------------------|

e|----------------------------------------------------------|
B|----------------------------------------------------------|
G|------------------4-4-4-4-2-2-2---------------------------|
D|--4-4-4-4-4-4-4-4---------------4-0-(x16)-----------------|
A|------------------------------------------0-(x8)--4-(x8)--|
E|----------------------------------------------------------|

Chorus
e|----------------------------------------------------------------------------------|
B|----------------------------------------------------------------------------------|
G|--4~-----------------------2~------4~-------------2~------4~-------------2~-------|
D|--4~-------5~------4~------2~------4~------4~-----2~------4~------4~-----2~-------|
A|--2-(x16)--5~------4~------0-(x8)--2-(x8)--4~-----0-(x8)--2-(x8)--4~-----0-(x8)---|
E|-----------3-(x8)--2-(x8)------------------2-(x8)-----------------2-(x8)----------|


e|---------------------|
B|---------------------|
G|---------------------|
D|--4-4-4-4-7-7-7-7----|
A|--4-4-4-4-7-7-7-7----|
E|--2-2-2-2-5-5-5-5----|

Outro
e|----------------------------------------------------|
B|----------------------------------------------------|
G|------------------4-4-4-4-2-2-2---------------------|
D|--4-4-4-4-4-4-4-4---------------4-0-(x16)-----------|
A|------------------------------------------0-(x16)---| Until end
E|----------------------------------------------------|


Guitar 2:

Chorus
e|-----------------14----------------------12-----------|
B|--15-14-15-14-12----15-14-15-14-15-14-12----15-14-----|
G|------------------------------------------------------|
D|------------------------------------------------------|
A|------------------------------------------------------|x6
E|------------------------------------------------------|

Verse
e|-------------------------------------------|
B|-------------------------------------------|
G|-------4----2----------4----6------2*------|* - Don't play first time
D|--4--------------0\/-----------------------|
A|-------------------------------------------|x3
E|-------------------------------------------|

Chorus
e|-----------------14----------------------12-----------|
B|--15-14-15-14-12----15-14-15-14-15-14-12----15-14-----|
G|------------------------------------------------------|
D|------------------------------------------------------|
A|------------------------------------------------------|x6
E|------------------------------------------------------|

Outro
e|------------------------------------------------------|
B|--2---2---2---2---2---2---2---2---2---2---2---2-------|
G|----2---2---2---2---2---2---2---2---4---4---4---4-----|
D|------------------------------------------------------| Until end
A|------------------------------------------------------|
E|------------------------------------------------------|
Related for Wrecking Ball tab