Song name
# A B C D E F G H I J K L M N O P Q R S T U V W X Y Z

Inxs - Dont Change tab

This is my first time tabbing so please excuse any mistakes.
Listen to the song for structure and timing.

x= muted sting
~= let note ring
/= slide up
= slide down

Keyboard intro
E-----------------------------------------------|
B-10~----7~----5~---2~--------------------------|
G------9-----6----4-----------------------------|
D-----------------------------------------------|
A-----------------------------------------------|
E-----------------------------------------------|

Guitar comes in with tremolo picking for so long (listen to CD for timing)
E-----------------------------------------------|
B-----------------------------------------------|
G-----------------------------------------------|
D-----------------------------------------------|
A-12-12-12-12-12-12-12-12-12-12-12-12-12-12-12--|
E-----------------------------------------------|

E-----------------------------------------------------------------------------------------------------|
B-----------------------------------------------------------------------------------------------------|
G-14~--9/-11~--{6/-9~--4/-6}~-|{This part can be played in bar chords, 
sounds good played in octaves}
A-12~--7/-9~---{4/-7~--2/-4}~-------------------------------------------------------------------------|
E-----------------------------------------------------------------------------------------------------|

The chords for the verse are:

A                                A,G#
I'm standing here on the ground,
F#
the sky above won't fall down
Bm         D        A
see no evil in all direction...

Chorus:
Bm               D
Don't change for you
Bm             D          A
Don't change a thing for me


Sometimes while the A chord is strummed after the chorus, a second guitar plays this:
E----9--------9-----|
B-10---11--10---11~-|
G-------------------|
D-------------------|
A-------------------|
E-------------------|

At the end:
F#      E     D   }x2  |   When D is strummed the second time, guitar 2
Don't...Cha...nge      |   plays this:
                       |   E--------------------|
                       |   B-6/-7-777-----------|
                       |   G-6/-7-777-----------|
                       |   A-4/-5-555-----------|
                       |   E--------------------|

End on A chord
Tap to rate this tab
# A B C D E F G H I J K L M N O P Q R S T U V W X Y Z