Song name
# A B C D E F G H I J K L M N O P Q R S T U V W X Y Z

Iron And Wine - Such Great Heights tab

Help us improve GuitareTab! Take a short survey!
I suppose this is technically not right but then if you want to play it on an acoustic 
you dont have 23 frets like me then this is as good as! Cheers to Sam Borchard for the 
tab. Enjoy x batears

e|------------------|---------------------|------------------|---------------------|
B|-11---------------|---12-11--------11---|-14---------------|---16-14-------14-11-|
G|-11---------------|-----------11--------|-10---------------|------------10-------|
D|-11---------------|---------------------|-11---------------|---------------------|
A|------------------|---------------------|------------------|---------------------|
E|------------------|---------------------|------------------|---------------------|
 | 1  + 2 + 3 + 4 + | 1 +  2  + 3  + 4  + | 1  + 2 + 3 + 4 + | 1 +  2 + 3  + 4  +  |

e|------------------|---------------------|---------------------|--------------------|
B|-12---------------|---12-11--------11---|-11-------12-11------|-14-------14----11--|
G|-11---------------|-----------11--------|-11-------------11---|-10-------10--------|
D|-11---------------|---------------------|-11------------------|-11-------11--------|
A|------------------|---------------------|---------------------|--------------------|
E|------------------|---------------------|---------------------|--------------------|
 | 1  + 2 + 3 + 4 + | 1 +  2  + 3  + 4  + | 1  + 2 + 3  +  4  + | 1  + 2 + 3  + 4  + |

e|-11---------------|
B|-11---------------|
G|-11---------------|
D|------------------|
A|------------------|
E|------------------|
 | 1  + 2 + 3 + 4 + |
Related for Such Great Heights tab