Song name
# A B C D E F G H I J K L M N O P Q R S T U V W X Y Z

Iron And Wine - Sunset Soon Forgotten tab

Title:  Sunset Soon Forgotten
Artist: Iron and Wine
Album:  Our Endless Numbered Days

These tabs should be correct.  I'm pretty picky with them.

Capo on the 2nd fret (tabs relative to capo)

***the slide from 0/2 is actually a hammer on from 0 to 1 and a slide form 1 to 2***
****or in other words: 0h1/2****

Intro:
E|---------|---------|---------|---------|---------|---------|---------|---------|
B|-0h1---3-|-------1-|-------1-|-------3-|-------1-|-------3-|-------1-|-------3-|
G|---------|---0-----|---0-----|-----0---|---0-----|-----0---|---0-----|-----0---|
D|-----2---|-----2---|-----2---|-0h2-----|-----2---|-0h2-----|-----2---|-0h2-----|
A|---------|---------|---------|---------|---------|---------|---------|---------|
E|-3-------|-3-------|-3-------|---------|-3-------|---------|-3-------|---------|
   . , . ,   . , . ,   . , . ,   . , . ,   . , . ,   . , . ,   . , . ,   . , . ,

E|---------|---------|---------|---------|---------|---------|---------|---------|
B|-------0-|-------0-|-------0-|-------0-|-------0-|-------0-|-------0-|-------0-|
G|---------|---0-----|---------|---0-----|---------|---0-----|---------|---0-----|
D|-----0---|-----0---|-----0---|-----0---|-----0---|-----0---|-----0---|-----0---|
A|-0/2-----|---------|-0/2-----|---------|-0/2-----|---------|-0/2-----|---------|
E|---------|-3-------|---------|-3-------|---------|-3-------|---------|-3-------|
   . , . ,   . , . ,   . , . ,   . , . ,   . , . ,   . , . ,   . , . ,   . , . ,

---------

Verse: (same as intro except for slight change in beginning)
E|---------|---------|---------|---------|---------|---------|---------|---------|
B|-1-----3-|-------1-|-------1-|-------3-|-------1-|-------3-|-------1-|-------3-|
G|---0-----|---0-----|---0-----|-----0---|---0-----|-----0---|---0-----|-----0---|
D|-----2---|-----2---|-----2---|-0h2-----|-----2---|-0h2-----|-----2---|-0h2-----|
A|---------|---------|---------|---------|---------|---------|---------|---------|
E|-3-------|-3-------|-3-------|---------|-3-------|---------|-3-------|---------|
   . , . ,   . , . ,   . , . ,   . , . ,   . , . ,   . , . ,   . , . ,   . , . ,

E|---------|---------|---------|---------|---------|---------|---------|---------|
B|-------0-|-------0-|-------0-|-------0-|-------0-|-------0-|-------0-|-------0-|
G|---------|---0-----|---------|---0-----|---------|---0-----|---------|---0-----|
D|-----0---|-----0---|-----0---|-----0---|-----0---|-----0---|-----0---|-----0---|
A|-0/2-----|---------|-0/2-----|---------|-0/2-----|---------|-0/2-----|---------|
E|---------|-3-------|---------|-3-------|---------|-3-------|---------|-3-------|
   . , . ,   . , . ,   . , . ,   . , . ,   . , . ,   . , . ,   . , . ,   . , . ,

---------

Bridge:
E|---------|---------|---------|---------|---------|---------|---------|---------|
B|-2-----3-|-------2-|-------3-|-------0-|-1-----3-|-------1-|-------3-|-------0-|
G|---0-----|---0-----|---0-----|---0-----|---0-----|---0-----|---0-----|---0-----|
D|-----4---|-----4---|-----4---|-----4---|-----2---|-----2---|-----2---|-----2---|
A|-2-------|-2-------|-2-------|-2-------|-0-------|-0-------|-0-------|-0-------|
E|---------|---------|---------|---------|---------|---------|---------|---------|
   . , . ,   . , . ,   . , . ,   . , . ,   . , . ,   . , . ,   . , . ,   . , . ,

E|---------|---------|---------|---------|---------|---------|---------|---------|
B|-------0-|-------0-|-------0-|-------0-|-------0-|-------0-|-------0-|-------0-|
G|---------|---0-----|---------|---0-----|---------|---0-----|---------|---0-----|
D|-----0---|-----0---|-----0---|-----0---|-----0---|-----0---|-----0---|-----0---|
A|-0/2-----|---------|-0/2-----|---------|-0/2-----|---------|-0/2-----|---------|
E|---------|-3-------|---------|-3-------|---------|-3-------|---------|-3-------|
   . , . ,   . , . ,   . , . ,   . , . ,   . , . ,   . , . ,   . , . ,   . , . ,

---------

Outro: (same as normal verse, but slight change at ending)
E|---------|---------|---------|---------|---------|---------|---------|---------|
B|-------0-|-------0-|-------0-|-------0-|-------0-|-------0-|---------|---------|
G|---------|---0-----|---------|---0-----|---------|---0-----|---------|---------|
D|-----0---|-----0---|-----0---|-----0---|-----0---|-----0---|---------|---------|
A|-0/2-----|---------|-0/2-----|---------|-0/2-----|---------|---------|---------|
E|---------|-3-------|---------|-3-------|---------|-3-------|-3-------|---------|
   . , . ,   . , . ,   . , . ,   . , . ,   . , . ,   . , . ,   . , . ,   . , . ,
Tap to rate this tab
# A B C D E F G H I J K L M N O P Q R S T U V W X Y Z