Song name
# A B C D E F G H I J K L M N O P Q R S T U V W X Y Z

Iron And Wine - Flightless Bird American Mouth tab

Iron and Wine- Flightless Bird American Mouth

The song repeats this the whole time.


Capo 3



  C                        Am
e|------------------------|------------------------|
B|--1-1---1-1---1-1---1-1-|--1-1---1-1---1-1---1-1-|
G|--0-0---0-0---0-0---0-0-|--2-2---2-2---2-2---2-2-|
D|------2-----------------|------2-----------------|
A|3-----------3-----2-----|0-----------0-----------|
E|------------------------|------------------0-----|




  F                        G
e|------------------------|------------------------|
B|--1-1---1-1---1-1---1-1-|--0-0---0-0---0-0-------|
G|--2-2---2-2---2-2---2-2-|--0-0---0-0---0-0-------|
D|------------------------|------------------------|
A|------3-----------3-----|-----0h2------------0-2-|
E|1-----------1-----------|3-----------3-----3-----|
Tap to rate this tab
# A B C D E F G H I J K L M N O P Q R S T U V W X Y Z