Song name
# A B C D E F G H I J K L M N O P Q R S T U V W X Y Z

Iron And Wine - Fever Dream tab

Iron & Wine - Fever Dream
From: Our Endless Numbered Days
-----------------------------------------------------------------
Tabbed by: Cassie
Email: cassirus@yahoo.com

This is my first tab, so there's definitely room for mistakes in 
this. Feel free to e-mail me about anything conerning this, thanks.

UPDATED as of 9/22/04. I was having problems with being able to update tabs, so all the
errors I've been aware of since I've posted are fixed.

Tuning: EADGBd, capo on 2nd fret. Tab is relative to capo.


Intro (x2):
d|---4------0-------4|-------0---------|-----------------|----------------|
B|--------0-------0--|-----0-----------|-3------3-------3|-------3--------|
G|------0-------0----|---0-------0-----|----0-------0----|---0-------0----|
D|---2--------2------|-2-------2---0---|------4-------4--|-----4-------4--|
A|-------------------|-----------------|-3--------3------|-3-------3------|
E|-------------------|-----------------|-----------------|----------------|

d|----------0--------|-----------------|-----------------|----------------|
B|--1-----------1----|-3------3--------|-3------3-------3|-------3--------|
G|-----0----------0--|----0-------0----|----0-------0----|---0-------0----|
D|-------2-----------|------4-------4--|------5-------5--|-----5-------0--|
A|--0---------0------|-2--------2------|-3--------3------|-3-------3------|
E|-------------------|-----------------|-----------------|----------------|

Verse (same as intro):
Some days her shape in the doorway
Will speak to me
A bird's wing on the window
Sometimes I'll hear when she's sleeping
Her fever dream
A language on her face


Chorus:
d|---------0--------|-------0-------|-2------0-------2|-------0-------------|
B|--1----------1---1|---------------|-----------------|---------------------|
G|-----0---------0--|---0-------0---|----0-2-----0-2--|---0-2-----0-2-------|
D|-------2----------|-----2-------2-|-0--------0------|-0-------0-----------|
A|--0--------0------|-0-------0-----|-----------------|---------------------|
E|------------------|---------------|-----------------|---------------------|(3x) 

d|---------0--------|-------0-------|---------0--------|--------------------|
B|--1--------------1|---------------|--0--------------0|---------1-------0--|
G|-----0-------0----|---0-------0---|-----0-------0----|---0---------0------|
D|-------2-------2--|-----2-------2-|-------0-------0--|-----0h2-------0----|
A|--0--------0------|-0-------0-----|------------------|--------------------|
E|------------------|---------------|--3--------3------|-3---------3--------|

d|---------0-------5|-------5--------|
B|--0----------0----|---0-------0----|
G|-----0---------0--|-----0-------0--|
D|-------0----------|----------------|
A|------------------|----------------|
E|--3--------3------|-3-------3------|

I want your flowers like babies want God's love
Or maybe as sure as tomorrow will come


(lead is played once over the verse):
d|--9~~~~---------|-9-10-10/12-10-9|-9/10--9-5~~~---|--5-7-7/9-7-5--|
B|----------------|----------------|----------------|---------------|
G|----------------|----------------|----------------|---------------|
D|----------------|----------------|----------------|---------------|
A|----------------|----------------|----------------|---------------|
E|----------------|----------------|----------------|---------------|

d|-5/7--5-2~~~----|--7---9-5---7---|10~~~-----------|---------------|
B|----------------|----------------|----------------|---------------|
G|----------------|----------------|----------------|---------------|
D|----------------|----------------|----------------|---------------|
A|----------------|----------------|----------------|---------------|
E|----------------|----------------|----------------|---------------|

d|--9~~~~---------|-9-10-10/12-10-9|-9/10--9-5~~~---|--5-7-7/9-7-5--|
B|--7~~~~---------|----------------|----------------|---------------|
G|----------------|----------------|----------------|---------------|
D|----------------|----------------|----------------|---------------|
A|----------------|----------------|----------------|---------------|
E|----------------|----------------|----------------|---------------|

d|-5/7--5-2~~~----|--7---9-5---7---|-5~~~-----------|-------------7-|4~~~|
B|----------------|----------------|----------------|---------------|----|
G|----------------|----------------|----------------|---------------|----|
D|----------------|----------------|----------------|---------------|----|
A|----------------|----------------|----------------|---------------|----|
E|----------------|----------------|----------------|---------------|----|


(verse):
Some days, like rain on the doorstep
She'll cover me
With grace in all she offers
Sometimes I'd like just to ask her
What honest words
She can't afford to say, like 

(chorus):
"I want your flowers like babies want God's love
Or maybe as sure as tomorrow will come"

(verse)(x2)
end last time with:
d|----------0--------|-----------------|-----------------|
B|--1-----------1----|-3------3--------|-3~~-------------|
G|-----0----------0--|----0-------0----|-----------------|
D|-------2-----------|------4-------4--|-----------------|
A|--0---------0------|-2--------2------|-3~~-------------|
E|-------------------|-----------------|-----------------|


| / slide up
| \ slide down
| h hammer-on
| p pull-off
| ~ vibrato
| + harmonic
| x Mute note
Tap to rate this tab
# A B C D E F G H I J K L M N O P Q R S T U V W X Y Z