Song name
# A B C D E F G H I J K L M N O P Q R S T U V W X Y Z

Jack Johnson - Cookie Jar tab

Standard Tuning (EADGBe)

This isn't the version from the "On and On" album, it's from an itunes original he does. 
I think it sounds better.

Intro

   D D U D     D                       U   D  U U
e|---2-2-2--x--------------------------x-x-4--4-4-x---|
B|---2-2-2--S--------------------------x-S-5----5-S---|
G|---2-2-2--L--6-----------------------x-L-6------L---|x2
D|-4-4-4-4--A--6-------4h6--4----------x-A-6------A---|
A|-4--------P--4--4h7----------7---2-----P-4------P---|
E|-2--------x----------------------------x-x------x---|

Verse 1

"And I would turn on the TV, but it's so embarrassing.
To see all the other people, don't even know what they mean.
And it was magic at first, but let everyone down.
And now this whole world is gonna hurt, Turn that thing down."

   D  U     D   U  U    D  U     D   U  U
e|----2--x--4---4--4--x-2--2--x--4---4--4--x-|
B|----2--S--5---5--5--S-4--4--S--5---5--5--S-|
G|----2--L--6---6--6--L-4--4--L--6---6--6--L-|x1
D|-4--4--A--6---6--6--A-4--4--A--6---6--6--A-|
A|-4-----P--4---------P-2-----P--4---------P-|
E|-2-----x--x---------x-x-----x--x---------x-|


   D D U D     D                       U   D  U U
e|---2-2-2--x--------------------------x-x-4--4-4-x---|
B|---2-2-2--S--------------------------x-S-5----5-S---|
G|---2-2-2--L--6-----------------------x-L-6------L---|x1
D|-4-4-4-4--A--6-------4h6--4----------x-A-6------A---|
A|-4--------P--4--4h7----------7---2-----P-4------P---|
E|-2--------x----------------------------x-x------x---|


   D  U     D   U  U    D  U     D   U  U
e|----2--x--4---4--4--x-2--2--x--4---4--4--x-|
B|----2--S--5---5--5--S-4--4--S--5---5--5--S-|
G|----2--L--6---6--6--L-4--4--L--6---6--6--L-|x2
D|-4--4--A--6---6--6--A-4--4--A--6---6--6--A-|
A|-4-----P--4---------P-2-----P--4---------P-|
E|-2-----x--x---------x-x-----x--x---------x-|


   D D U D     D                       U   D  U U
e|---2-2-2--x--------------------------x-x-4--4-4-x---|
B|---2-2-2--S--------------------------x-S-5----5-S---|
G|---2-2-2--L--6------------4----------x-L-6------L---|x1
D|-4-4-4-4--A--6-------4h6-------------x-A-6------A---|
A|-4--------P--4--4h7----------7---2-----P-4------P---|
E|-2--------x----------------------------x-x------x---|


Verse 2

"Well...It wasnt me says the boy with the gun,
Sure I pulled the trigger but it needed to be done.
Cus lifes been killin me ever since it begun,
you can't blame me cus I'm too young."

   D  U     D   U  U    D  U     D   U  U
e|----2--x--4---4--4--x-2--2--x--4---4--4--x-|
B|----2--S--5---5--5--S-4--4--S--5---5--5--S-|
G|----2--L--6---6--6--L-4--4--L--6---6--6--L-|x2
D|-4--4--A--6---6--6--A-4--4--A--6---6--6--A-|
A|-4-----P--4---------P-2-----P--4---------P-|
E|-2-----x--x---------x-x-----x--x---------x-|


   D D U D     D                       U   D  U U
e|---2-2-2--x--------------------------x-x-4--4-4-x---|
B|---2-2-2--S--------------------------x-S-5----5-S---|
G|---2-2-2--L--6-----------------------x-L-6------L---|x1
D|-4-4-4-4--A--6-------4h6--4----------x-A-6------A---|
A|-4--------P--4--4h7----------7---2-----P-4------P---|
E|-2--------x----------------------------x-x------x---|


Verse 3

"Well...you can't blame me sure the killer was my son,
But i didn't teach him to pull the trigger of the gun.
It's the killin on his TV screen,
You can't blame me its those images he sees"


   D  U     D   U  U    D  U     D   U  U
e|----2--x--4---4--4--x-2--2--x--4---4--4--x-|
B|----2--S--5---5--5--S-4--4--S--5---5--5--S-|
G|----2--L--6---6--6--L-4--4--L--6---6--6--L-|x2
D|-4--4--A--6---6--6--A-4--4--A--6---6--6--A-|
A|-4-----P--4---------P-2-----P--4---------P-|
E|-2-----x--x---------x-x-----x--x---------x-|


   D D U D     D                       U   D  U U
e|---2-2-2--x--------------------------x-x-4--4-4-x---|
B|---2-2-2--S--------------------------x-S-5----5-S---|
G|---2-2-2--L--6-----------------------x-L-6------L---|x1
D|-4-4-4-4--A--6-------4h6--4----------x-A-6------A---|
A|-4--------P--4--4h7----------7---2-----P-4------P---|
E|-2--------x----------------------------x-x------x---|


Verse 4

"Well...You can't blame me says the media man,
Cus i wasn't the one who came up with the plan.
And I just point my camera what the people want to see,
Man it's a two way mirror and you can't blame me.


   D  U     D   U  U    D  U     D   U  U
e|----2--x--4---4--4--x-2--2--x--4---4--4--x-|
B|----2--S--5---5--5--S-4--4--S--5---5--5--S-|
G|----2--L--6---6--6--L-4--4--L--6---6--6--L-|x2
D|-4--4--A--6---6--6--A-4--4--A--6---6--6--A-|
A|-4-----P--4---------P-2-----P--4---------P-|
E|-2-----x--x---------x-x-----x--x---------x-|


   D D U D     D                       U   D  U U
e|---2-2-2--x--------------------------x-x-4--4-4-x---|
B|---2-2-2--S--------------------------x-S-5----5-S---|
G|---2-2-2--L--6-----------------------x-L-6------L---|x1
D|-4-4-4-4--A--6-------4h6--4----------x-A-6------A---|
A|-4--------P--4--4h7----------7---2-----P-4------P---|
E|-2--------x----------------------------x-x------x---|


Verse 5

"Well...you can't blame me says the singer of the song,
Or the maker of the movie which he based his life on.
It's only entertainment and as anyone can see,
Smoke machines and makeup man you can't fool me."


   D  U     D   U  U    D  U     D   U  U
e|----2--x--4---4--4--x-2--2--x--4---4--4--x-|
B|----2--S--5---5--5--S-4--4--S--5---5--5--S-|
G|----2--L--6---6--6--L-4--4--L--6---6--6--L-|x2
D|-4--4--A--6---6--6--A-4--4--A--6---6--6--A-|
A|-4-----P--4---------P-2-----P--4---------P-|
E|-2-----x--x---------x-x-----x--x---------x-|


Bridge

"I feel like I'm wakin up from a bad bad dream,
mmmm I feel like I'm wakin up from a bad bad dream."

   D  U   D   U  U
e|-4--4-x-2---2--2--x-|
B|-5--5-S-4---4--4--S-|
G|-6--6-L-4---4--4--L-|x4
D|-6--6-A-4---4--4--A-|
A|-4----P-2---------P-|
E|-x----x-x---------x-|

   D D U D     D                       U   D  U U
e|---2-2-2--x--------------------------x-x-4--4-4-x---|
B|---2-2-2--S--------------------------x-S-5----5-S---|
G|---2-2-2--L--6-----------------------x-L-6------L---|x1
D|-4-4-4-4--A--6-------4h6--4----------x-A-6------A---|
A|-4--------P--4--4h7----------7---2-----P-4------P---|
E|-2--------x----------------------------x-x------x---|

Verse 6

"It was you it was me it was every man,
We've all got the blood on our hands.
We only receive what we demand,
And if we want hell then hell's what we'll have."


   D  U     D   U  U    D  U     D   U  U
e|----2--x--4---4--4--x-2--2--x--4---4--4--x-|
B|----2--S--5---5--5--S-4--4--S--5---5--5--S-|
G|----2--L--6---6--6--L-4--4--L--6---6--6--L-|x2
D|-4--4--A--6---6--6--A-4--4--A--6---6--6--A-|
A|-4-----P--4---------P-2-----P--4---------P-|
E|-2-----x--x---------x-x-----x--x---------x-|


   D D U D     D                       U   D  U U
e|---2-2-2--x--------------------------x-x-4--4-4-x---|
B|---2-2-2--S--------------------------x-S-5----5-S---|
G|---2-2-2--L--6-----------------------x-L-6------L---|x1
D|-4-4-4-4--A--6-------4h6--4----------x-A-6------A---|
A|-4--------P--4--4h7----------7---2-----P-4------P---|
E|-2--------x----------------------------x-x------x---|

Lastly repeat the first verse
Tap to rate this tab
# A B C D E F G H I J K L M N O P Q R S T U V W X Y Z