Guitaretab - guitar tabs
Song name
# A B C D E F G H I J K L M N O P Q R S T U V W X Y Z

Jack Johnson - Banana Pancakes tab

Intro
                 Am7                     G7
                   n v                     n v
e|-------------------5-----------------------3-|
B|-----------------x-5---------------------x-3-|
G|-----------------x-5---------------------x-4-|
D|-----------------x-5---------------------x-3-|
A|-----5-----------------------5---------------|
E|-5/7---7-5\3-0-5---------5/7---7-5\3-0-3-----|

Verse
                 Am7                     G7         D7
                   n v                     n v    n n N
e|-------------------5-----------------------3----------|
B|-----------------x-5---------------------x-3----x-4-4-|
G|-----------------x-5---------------------x-4----x-5-5-|
D|-----------------x-5---------------------x-3----x-4-4-|
A|-----5-7-5-------------------5--------------------5-5-|
E|-5/7-------7-0-5---------5/7---7-5/3-0-3--------------|

Pre-chorus
   G7  D7  Am7 C7
   n N n N n N n N v
e|-3-3---------3-3-3-|
B|-3-3-3-3-5-5-5-5-3-|
G|-4-4-5-5-5-5-3-3-3-|
D|-3-3-4-4-5-5-5-5-3-|
A|-5-5-5-5-----3-3-3-|
E|-3-3-----5-5-------|4x

Chorus
   Am7                             G7                              Am7
   n v n v n v n v n               n v n v n v n v n               n v n v
e|-5-5-x-5-5-5-x-5-5---------------3-3-x-3-3-3-x-3-3---------------5-5-x-5--|
B|-5-5-x-5-5-5-x-5-5---------------3-3-x-3-3-3-x-3-3---------------5-5-x-5--|
G|-5-5-x-5-5-5-x-5-5---------------4-4-x-4-4-4-x-4-4---------------5-5-x-5--|
D|-5-5-x-5-5-5-x-5-5---------------3-3-x-3-3-3-x-3-3---------------5-5-x-5--|
A|-7-7-x-7-7-7-x-7-7-----5h--------5-5-x-5-5-5-x-5-5-----5h--------7-7-x-7--|
E|-5h5hxh5h5h5hxh5h5-5/7h--7h5/3h0-3h3hxh3h3h3hxh3h3-5/7h--7h5/3h0-5--------|h5hxh5h
                        G7                      D7  G7              G7
                        1.                          2.
n v n v n               n v n v n v n v n v n v n N n v n v n v n v n v n v
5-5-x-5-5---------------3-3-x-3-3-3-x-3-3-3-x-3-----3-3-x-3-3-3-x-3-3-3-x-3--|
5-5-x-5-5---------------3-3-x-3-3-3-x-3-3-3-x-3-3-3-3-3-x-3-3-3-x-3-3-3-x-3--|
5-5-x-5-5---------------4-4-x-4-4-4-x-4-4-4-x-4-5-5-4-4-x-4-4-4-x-4-4-4-x-4--|
5-5-x-5-5---------------3-3-x-3-3-3-x-3-3-3-x-3-4-4-3-3-x-3-3-3-x-3-3-3-x-3--|
7-7-x-7-7-----5h--------5-5-x-5-5-5-x-5-5-5-x-5-5-5-5-5-x-5-5-5-x-5-5-5-x-5--|
5h5hxh5h5-5/7h--7h5/3h0-3h3hxh3h3h3hxh3h3h3hxh3-----3------------------------|h3hxh3h3h3hxh3h3h3hxh3

n v n v
3-3-xh3-|
3-3-xh3-|
4-4-xh4-|
3-3-xh3-|
5-5-xh5-|
3h3hxh3-|Repeat pre-chorus and chorus

Interlude
   Am7             Am7             G7              G7
   n v n v n v n v n v n v n v n v n v n v n v n v n v n v n v n v
e|-5-5-x-5-5-5-x-5-5-5-x-5-5-5-x-5-3-3-x-3-3-3-x-3-3-3-x-3-3-3-x-3-|
B|-5-5-x-5-5-5-x-5-5-5-x-5-5-5-x-5-3-3-x-3-3-3-x-3-3-3-x-3-3-3-x-3-|
G|-5-5-x-5-5-5-x-5-5-5-x-5-5-5-x-5-4-4-x-4-4-4-x-4-4-4-x-4-4-4-x-4-|
D|-5-5-x-5-5-5-x-5-5-5-x-5-5-5-x-5-3-3-x-3-3-3-x-3-3-3-x-3-3-3-x-3-|
A|-7-7-x-7-7-7-x-7-7-7-x-7-7-7-x-7-5-5-x-5-5-5-x-5-5-5-x-5-5-5-x-5-|
E|-5h5hxh5h5h5hxh5h5h5hxh5h5h5hxh5h3h3hxh3h3h3hxh3h3h3hxh3h3h3hxh3h|2x
[ Tab from: http://www.guitaretab.com/j/jack-johnson/56937.html ]
Bridge
   Am7             Am7             D7              D7              Am7
   n v n v n v n v n v n v n v n v n v n v n v n v n v n v n v n v n v n v
e|-5-5-x-5-5-5-x-5-5-5-x-5-5-5-x-5-5-5-x-5-5-5-x-5-5-5-x-5-5-5-x-5-5-5-x-5--|
B|-5-5-x-5-5-5-x-5-5-5-x-5-5-5-x-5-7-7-x-7-7-7-x-7-7-7-x-7-7-7-x-5-5-5-x-5--|
G|-5-5-x-5-5-5-x-5-5-5-x-5-5-5-x-5-5-5-x-5-5-5-x-5-5-5-x-5-5-5-x-6-5-5-x-5--|
D|-5-5-x-5-5-5-x-5-5-5-x-5-5-5-x-5-7-7-x-7-7-7-x-7-7-7-x-7-7-7-x-5-5-5-x-5--|
A|-7-7-x-7-7-7-x-7-7-7-x-7-7-7-x-7-5h5hxh5h5h5hxh5h5h5hxh5h5h5hxh7-7-7-x-7--|
E|-5h5hxh5h5h5hxh5h5h5hxh5h5h5hxh5h------------------------------5----------|h5h5hxh5h
        Am7             D7              D7              Bm              Bm
n v n v n v n v n v n v n v n v n v n v n v n v n v n v n v n v n v n v n v
5-5-x-5-5-5-x-5-5-5-x-5-5-5-x-5-5-5-x-5-5-5-x-5-5-5-x-5-7-7-x-7-7-7-x-7-7-7-|
5-5-x-5-5-5-x-5-5-5-x-5-7-7-x-7-7-7-x-7-7-7-x-7-7-7-x-7-7-7-x-7-7-7-x-7-7-7-|
5-5-x-5-5-5-x-5-5-5-x-5-5-5-x-5-5-5-x-5-5-5-x-5-5-5-x-5-7-7-x-7-7-7-x-7-7-7-|
5-5-x-5-5-5-x-5-5-5-x-5-7-7-x-7-7-7-x-7-7-7-x-7-7-7-x-7-9-9-x-9-9-9-x-9-9-9-|
7-7-x-7-7-7-x-7-7-7-x-7-5h5hxh5h5h5hxh5h5h5hxh5h5h5hxh5h9-9-x-9-9-9-x-9-9-9-|
5h5hxh5h5h5hxh5h5h5hxh5h--------------------------------7h7hxh7h7h7hxh7h7h7-|
             Em      Em/D#   C               G7              D7
 n v n v n v n v n v n v n v n v n v n v n v n v n v n v n v n v n v n v n
-x-7-7-7-x-7-7-7-x-7-x-x-x-x-3-3-x-3-3-3-x-3-3-3-x-3-3-3-x-3-5-5-x-5-5-5-x--|
-x-7-7-7-x-7-8-8-x-8-8-8-x-8-5-5-x-5-5-5-x-5-3-3-x-3-3-3-x-3-7-7-x-7-7-7-x--|
-x-7-7-7-x-7-9-9-x-9-9-9-x-9-5-5-x-5-5-5-x-5-4-4-x-4-4-4-x-4-5-5-x-5-5-5-x--|
-x-9-9-9-x-9-9-9-x-9-9-9-x-9-5-5-x-5-5-5-x-5-3-3-x-3-3-3-x-3-7-7-x-7-7-7-x--|
-x-9-9-9-x-9-7h7hxh7h6h6hxh6h3h3hxh3h3h3hxh3h5-5-x-5-5-5-x-5-5--------------|h5hxh5h5h5hxh
hxh7h7h7hxh7h--------------------------------3h3hxh3h3h3hxh3h---------------|
  G7              G7      D7
v n v n v n v n v n v n v n N
5-3-3-x-3-3-3-x-3-3-3-x-3-----|
7-3-3-x-3-3-3-x-3-3-3-x-3-3-3-|
5-4-4-x-4-4-4-x-4-4-4-x-4-5-5-|
7-3-3-x-3-3-3-x-3-3-3-x-3-4-4-|
5h5-5-x-5-5-5-x-5-5-5-x-5-5-5-|
--3h3hxh3h3h3hxh3h3h3hxh3h----|

Pre-chorus
   G7  D7  Am7 C7
   n N n N n N n N
e|-3-3---------3-3-|
B|-3-3-3-3-5-5-5-3-|
G|-4-4-5-5-5-5-3-3-|
D|-3-3-4-4-5-5-5-3-|
A|-5-5-5-5-----3-3-|
E|-3-3-----5-5-----|4x

Chorus
   Am7                             G7                              Am7
   n v n v n v n v n               n v n v n v n v n               n v n v
e|-5-5-x-5-5-5-x-5-5---------------3-3-x-3-3-3-x-3-3---------------5-5-x-5--|
B|-5-5-x-5-5-5-x-5-5---------------3-3-x-3-3-3-x-3-3---------------5-5-x-5--|
G|-5-5-x-5-5-5-x-5-5---------------4-4-x-4-4-4-x-4-4---------------5-5-x-5--|
D|-5-5-x-5-5-5-x-5-5---------------3-3-x-3-3-3-x-3-3---------------5-5-x-5--|
A|-7-7-x-7-7-7-x-7-7-----5h--------5-5-x-5-5-5-x-5-5-----5h--------7-7-x-7--|
E|-5h5hxh5h5h5hxh5h5-5/7h-7h5/3h0-3h3hxh3h3h3hxh3h3-5/7h-7h5/3h0-5--------|h5hxh5h
                        G7              G7
n v n v n               n v n v n v n v n v n v n v n v
5-5-x-5-5---------------3-3-x-3-3-3-x-3-3-3-x-3-3-3-x-3-|
5-5-x-5-5---------------3-3-x-3-3-3-x-3-3-3-x-3-3-3-x-3-|
5-5-x-5-5---------------4-4-x-4-4-4-x-4-4-4-x-4-4-4-x-4-|
5-5-x-5-5---------------3-3-x-3-3-3-x-3-3-3-x-3-3-3-x-3-|
7-7-x-7-7-----5h--------5-5-x-5-5-5-x-5-5-5-x-5-5-5-x-5-|
5h5hxh5h5-5/7h--7h5/3h0-3h3hxh3h3h3hxh3h3h3hxh33h3h3xh3h|

Outro
  Am7             Am7             G7              G7              G7
                                  1.                              2.
  n v n v n v n v n v n v n v n v n v n v n v n v n v n v n v n v n
e|5-5-x-5-5-5-x-5-5-5-x-5-5-5-x-5-3-3-x-3-3-3-x-3-3-3-x-3-3-3-x-3-3----|
B|5-5-x-5-5-5-x-5-5-5-x-5-5-5-x-5-3-3-x-3-3-3-x-3-3-3-x-3-3-3-x-3-3----|
G|5-5-x-5-5-5-x-5-5-5-x-5-5-5-x-5-4-4-x-4-4-4-x-4-4-4-x-4-4-4-x-4-4----|
D|5-5-x-5-5-5-x-5-5-5-x-5-5-5-x-5-3-3-x-3-3-3-x-5-3-3-x-3-3-3-x-3-3----|
A|7-7-x-7-7-7-x-7-7-7-x-7-7-7-x-7-5-5-x-5-5-5-x-5-5-5-x-5-5-5-x-5-5----|
E|5h5hxh5h5h5hxh5h5h5hxh5h5h5hxh5h3h3hxh3h3h3hxh3h3h3hxh3h3h3hxh3h3----|2x

Chords
Am7 = 575555 (in intro, verse, chorus, interlude, bridge and outro)
G7 = 353433
D7 = *5453* (in verse, pre-chorus and chorus)
Am7 = 5*555* (in pre-chorus)
D7 = *57575 (in bridge)
Bm = 799777
Em = *79987
Em/D# = *6998*
C = *35553

I saw some comments on this tab, it may look a little confusing but
the normal n and v are just down and upstrokes
(so: n=downstroke, v=upstroke) and the N means you have to play it
louder. The x's mean you have to damp the strings, they're all
barrechords so that's not very hard. Also, the strum in the chorus, interlude and bridge 
everywhere the same, so then just only watch to
the chords above. Good luck, and please rate it better, I'm pretty
sure this is an accurate tab. ;-)
Related for Banana Pancakes tab